Cifra Club

Sweet Child O' Mine

Guns N' Roses

Tablatura: Solo-para-iniciantes (guitarra)
reproducciones 658
Tono: G
Parte 1

E|---2-----3---2--|
B|-----3-----3---3|
G|-------2--------|  
D|-0--------------|
A|----------------|
E|----------------|

E|---2-----3---2--|
B|-----3-----3---3|
G|-------0--------|  
D|----------------|
A|-3--------------|
E|----------------|

E|---2-----3---2--|
B|-----3-----3---3|
G|-------0--------|  
D|----------------|
A|----------------|
E|-3--------------|

[Parte 2]

E|---2-----3---2--|
B|-----3-----3---3|
G|-------2--------|  
D|-0--------------|
A|----------------|
E|----------------|

E|---2-----3---2--|
B|-----3-----3---3|
G|-------0--------|  
D|----------------|
A|-3--------------|
E|----------------|

E|---2-----3---2--|---2-----3---2---0---2---2p3h2-|
B|-----3-----3---3|-----3-----3---3---3---3-------|
G|-------0--------|-------0-----------------------|
D|----------------|-------------------------------|
A|----------------|-------------------------------|
E|-3--------------|-3-----------------------------|
Acordes para:

    0 comentarios

    mostrar más comentarios
    00:00 / 00:00
    outros vídeos desta música
    repetir qualidade Automático
    Outros vídeos desta música
    00:00 / 00:00
    Automático
    OK