Cifra Club

Las Ratas No Tienen Alas

Jaguares

Cifrado: Principal (guitarra y guitarra eléctrica)
tono: D
Intro
E|------------------------------------------------------------|
B|-1----1-1-0-1-0-0----1----1-1-0-1-0-3------0-0-----0-0------|
G|-2--2-2-2-2-2--------2--2-2-2-2-2------0-0-----0-0-----0----|
D|---------------------------------------------------------4--|
A|-0--0-0-0-0-0-0-0----0--0-0-0-0-0-0-0-----------------------|
E|------------------------------------------------------------|

E|------------------------|
B|-------0-0-----3-3---3--|
G|---0-0-----0-0-----0----|
D|------------------------|
A|------------------------|
E|------------------------|

Ahora vienen los riffs
este es el Primero
E|-3----12---14-----10----|
B|------13---15-----------|
G|------------------------|
D|------------------------|
A|------------------------|
E|------------------------|

este es otro riff (2)
E|-3----12---14--15--14---|
B|------13---15--17--15---|
G|------------------------|
D|------------------------|
A|------------------------|
E|------------------------|

Ahora es el solo que se oye al final no se cuantas veces se toca
E|-2---2-2---2-2-3-3-3-0-0--2---2-2---2-2-3-3-3-0-0-2---------|
B|---0-----0------------------0-----0-----------------0-0-0-0-|
G|------------------------------------------------------------|
D|------------------------------------------------------------|
A|------------------------------------------------------------|
E|------------------------------------------------------------|

E|---------0--------------------------------------------------|
B|-------3----------------------------------------------------|
G|-2-2-2------0-0-0-0-0---------------------------------------|
D|----------------------4-4-4-2-0-----------------------------|
A|------------------------------------------------------------|
E|------------------------------------------------------------|
00:00 / 00:00
Otros videos de esta canción
Repetir
Otros videos de esta canción
Composición de Saul Hernández
45 exhibiciones
    • ½ Tono
    • A
    • Bb
    • B
    • C
    • Db
    • D
    • Eb
    • E
    • F
    • F#
    • G
    • Ab
  • Agregar a la lista
    00:00 / 00:00
    OK