Cifra Club

My Party

Kings Of Leon

Tablatura: Principal (guitarra)
Tom: D
intro na guitarra, em seguida vem bateria e baixo juntos;

G|------------------------------------------------------
D|------------------------------------------------------ esse é o riff do começo da musica,
A|----7-0-----------------------------------------------  se repete algumas vezes.
E|-7-9---7-9-0...---------------------------------------

Riff 2; entra vocal 

G|------------------------------------------------------
D|------------------------------------------------------
A|------------------------------------------------------
E|---999/3----0-0-9999/3----0-0-99/3-------------------- repete varias vezes 

Riff 3; parte antes do refrão

G|------------------------------------------------------
D|------------------------------------------------------ Repete algumas vezes também com o refrão
A|------7-----0-----------------------------------------
E|-9-7-9--9-7-------------------------------------------

Riff 4 ; refrão

G|------------------------------------------------------
D|------------------------------------------------------ 2 vezes
A|------------------------------------------------------
E|-7/9999999-0-555555-0-222222-0-222222-----------------
reproducciones 79
Acordes para:

    0 comentarios

    mostrar más comentarios

    ¿Conseguiste tocar?

    0 tocaron 0 aún no

    ¡Graba un vídeo tocando My Party y envianoslo!

    00:00 / 00:00
    outros vídeos desta música
    repetir qualidade Automático
    Outros vídeos desta música
    00:00 / 00:00
    Automático
    OK