Cifra Club

In Your Words

Lamb of God

Cifrado: Principal (guitarra y guitarra eléctrica)
Acompaña nuestras novedades de Cifra Club en español.
¡Sigue nuestro perfil en Instagram!
tono: E
(riff 1)

E|-|-----------------------------------------------|
B|-|-----------------------------------------------|
G|-|-----------------------------------------------|
D|-|-----------------------------------------------|
A|-|---------------------------------------11------|
D|-|-0-0-12-0-12-0-12-0-12-0-12-0-12-0-12-0--12----|
    . .    .    .    .    .    .    .    .

E|-|--------------------------------------|
B|-|--------------------------------------|
G|-|--------------------------------------|
D|-|--------------------------------------|
A|-|----------------------12------10-11-8-|
D|-|-0-0-12-0-12-0-12-0-10--10-9-8--------|
    . .    .    .    .

E|-|----------------------------------------------------------------------|
B|-|----------------------------------------------------------------------|
G|-|----------------------------------------------------------------------|
D|-|--------------------------------------------------------------5-4-----|
A|-|---------------------------------------11----7-----5-6-3---------6-5--|
D|-|-0-0-12-0-12-0-12-0-12-0-12-0-12-0-12-0--12-5-5-4-3------3-2-1------5-|
    . .    .    .    .    .    .    .    .

(toque o riff acima 4x - no 2o tempo, uma breve parada pra parte de baixo)
E|-|---------------------------------------------------------|
B|-|---------------------------------------------------------|
G|-|---------------------------------------------------------|
D|-|---------------------------------------------------------|
A|-|---------------------------------------11----7-----5-6-3-|*PAUSA*
D|-|-0-0-12-0-12-0-12-0-12-0-12-0-12-0-12-0--12-5-5-4-3------|
    . .    .    .    .    .    .    .    .

(riff 2)
E|-|-------------------------------------------------------------|
B|-|-------------------------------------------------------------|
G|-|-------------------------------------------------------------|
D|-|-------------------------------------------------------------|
A|-|-----12p0-12p------12p0--------------------11-11-11-11-11-11-|
D|-|-0-0-0----0----0-0-0----000000000000000000-0--0--0--0--0--0--|
    . .           . .      ..................

E|-|----------------------------------------------------------------|
B|-|----------------------------------------------------------------|
G|-|----------------------------------------------------------------|
D|-|------------------------------2----------5-------------3--------|
A|-|-----12p0-12p0-----12p0------3-3-5-5-5-5-5-7p5-5-5-3-3-3--3-3-3-|
D|-|-0-0-0----0----0-0-0----0-0-5----5-5-5-5-5-----5-5-3-3-3--2-2-2-|
    . .           . .      . .      . . . .       . . . .    . .

E|-|---------------------------------------------------------------|
B|-|---------------------------------------------------------------|
G|-|---------------------------------------------------------------|
D|-|---------------------------------------------------------------|
A|-|-----12p0-12p0------12p0--------------------11-11-11-11-11-11--|
D|-|-0-0-0----0-----0-0-0----000000000000000000-0--0--0--0--0--0---|
    . .           . .      ..................

E|-|------------------------------------------------------------------------------------|
B|-|------------------------------------------------------------------------------------|
G|-|------------------------------------------------------------------------------------|
D|-|------------------------------------------------------------------------------------|
A|-|-----12p0--12p0-----12p0-------------------------------------4----------------------|
D|-|-0-0-0-----0----0-0-0----000000-3p2p1-3p2p1p0-3h6p3p0-5-6-5-6--    . .           .--|
    ......

(riff 3)

E|-|-------------------------------------------------------------------------|
B|-|-------------------------------------------------------------------------|
G|-|-------------------------------------------------------------------------|
D|-|----------------------------------12-12-12-12-12-12----12-12-12-12-12-12-|
A|-|-0-0---------0-0---------------00-9--9--9--9--9--9--00-8--8--8--8--8--8--|
D|-|-0-0-3p0-3p0-0-0-3p0--00000000-00-0--0--0--0--0--0--00-0--0--0--0--0--0--|
    . .         . .      ........ ..                   ..

E|-|------------------------------------------------------------------------|
B|-|------------------------------------------------------------------------|
G|-|------------------------------------------------------------------------|
D|-|----------------------------------8--8--8--8--8--8-----7--7--7--7--7--7-|
A|-|-0-0---------0-0---------------00-6--6--6--6--6--6--00-5--5--5--5--5--5-|
D|-|-0-0-3p0-3p0-0-0-3p0--00000000-00-0--0--0--0--0--0--00-0--0--0--0--0--0-|
    . .         . .      ........ ..                   ..
(2x riff de cima)

(riff 4)

E|-|------------------------------------------------------------|
B|-|------------------------------------------------------------|
G|-|------------------------------------------------------------|
D|-|-8-8-8-8-8-8-8-8-8-8-8-8-8-8--5-5-5-5-5-5-5-x---------------|
A|-|-8-8-8-8-8-8-8-8-8-8-8-8-8-8--5-5-5-5-5-5-5-x-3-3-3-x-3-3-3-|
D|-|-8-8-8-8-8-8-8-8-8-8-8-8-8-8--5-5-5-5-5-5-5-x-3-3-3-x-2-2-2-|

E|-|---------------------------------------------------------|
B|-|---------------------------------------------------------|
G|-|---------------------------------------------------------|
D|-|---------------------------------------------------------|
A|-|-------------------------------------------------7-7-7-7-|
D|-|-0-0-0-0-0-0-0-0-0-1-1-1-1p0-0-0-0-0-0-0-0-0-0-0-7-7-7-7-|
    . .   .   .   .             . .   .   .   .   .

(segundo final voltar para riff 1 e repita o ciclo de riffs)
(quando você voltar para (riff 1 pela segunda vez, faz duas vezes, e volta para
o início, e depois vai para este riff de baixo)

(riff 5)
E|-|------------------------|
B|-|------------------------|
G|-|------------------------|
D|-|------------------------|
A|-|-0000-0-0-0000-0-0-0000-|
D|-|-0000-0-0-0000-0-0-0000-|

(riff 6)
E|-|--------------------------------------------------------------------|
B|-|--------------------------------------------------------------------|
G|-|--------------------------------------------------------------------|
D|-|-3/444444444444\333333333333/444444444444\333333\111111/444444444444
A|-|--------------------------------------------------------------------|
D|-|--------------------------------------------------------------------|
    ...................................................................
E|-|----------------------------------|
B|-|----------------------------------|
G|-|----------------------------------|
D|-|-\333333333333/444444/777777777-7-|
A|-|----------------------------------|
D|-|----------------------------------|
     ............................. .

(riff 7)
E|-|--------------------------------------------------------------------------|
B|-|--------------------------------------------------------------------------|
G|-|-11-11-11-11-11-11-11-11-11-11-11-11-11-11-11-11-11-11-11-11-11-11-11-11\-|
D|-|--x--x--x--x--x--x--x--x--x--x--x--x--x--x--x--x--x--x--x--x--x--x--x--x--|
A|-|--9--9--9--9--9--9--9--9--9--9--9--9--9--9--9--9--9--9--9--9--9--9--9--9\-|
D|-|--0--0--0--0--0--0--0--0--0--0--0--0--0--0--0--0--0--0--0--0--0--0--0--0--|

E|-|-------------------------------------------------------------------------|
B|-|-------------------------------------------------------------------------|
G|-|-10-10-10-10-10-10-10-10-10-10-10-10-10-10-10-10-10-10-10-10-10-10-10-10-|
D|-|--x--x--x--x--x--x--x--x--x--x--x--x--x--x--x--x--x--x--x--x--x--x--x--x-|
A|-|--8--8--8--8--8--8--8--8--8--8--8--8--8--8--8--8--8--8--8--8--8--8--8--8-|
D|-|--0--0--0--0--0--0--0--0--0--0--0--0--0--0--0--0--0--0--0--0--0--0--0--0-|

E|-|--------------------------------------------------------------------------|
B|-|--------------------------------------------------------------------------|
G|-|-11-11-11-11-11-11-11-11-11-11-11-11-11-11-11-11-11-11-11-11-11-11-11-11\-|
D|-|--x--x--x--x--x--x--x--x--x--x--x--x--x--x--x--x--x--x--x--x--x--x--x--x--|
A|-|--9--9--9--9--9--9--9--9--9--9--9--9--9--9--9--9--9--9--9--9--9--9--9--9\-|
D|-|--0--0--0--0--0--0--0--0--0--0--0--0--0--0--0--0--0--0--0--0--0--0--0--0--|

E|-|--------------------------------------------------------------------------|
B|-|--------------------------------------------------------------------------|
G|-|--10-10-10-10-10-10-10-10-10-10-10-10-14-14-14-14-14-14-14-14-14-14-14-14-|
D|-|--x--x--x--x--x--x--x--x--x--x--x--x--x--x--x--x--x--x--x--x--x--x--x--x--|
A|-|--8--8--8--8--8--8--8--8--8--8--8--8--12-12-12-12-12-12-12-12-12-12-12-12-|
D|-|--0--0--0--0--0--0--0--0--0--0--0--0--0--0--0--0--0--0--0--0--0--0--0--0--|

(riff 8)
E|-|----------------------------------------------------------|
B|-|----------------------------------------------------------|
G|-|-9-9-9-9-9-9--7-7-7-7-7-7-7-7-7-7-7-7--11-11-11-11-11-11--|
D|-|-x-x-x-x-x-x--x-x-x-x-x-x-x-x-x-x-x-x---x--x--x--x--x--x--|
A|-|-7-7-7-7-7-7--5-5-5-5-5-5-5-5-5-5-5-5---9--9--9--9--9--9--|
D|-|-0-0-0-0-0-0--0-0-0-0-0-0-0-0-0-0-0-0---0--0--0--0--0--0--|

E|-|--------------------------------------------------------------------------|
B|-|--------------------------------------------------------------------------|
G|-|-10-10-10-10-10-10-10-10-10-10-10-10--5-5-5-5-5-5-5-5-5-5-5-5-5-5-5-5-5-5-|
D|-|--x--x--x--x--x--x--x--x--x--x--x--x--x-x-x-x-x-x-x-x-x-x-x-x-x-x-x-x-x-x-|
A|-|--8--8--8--8--8--8--8--8--8--8--8--8--3-3-3-3-3-3-3-3-3-3-3-3-3-3-3-3-3-3-|
D|-|--0--0--0--0--0--0--0--0--0--0--0--0--0-0-0-0-0-0-0-0-0-0-0-0-0-0-0-0-0-0-|

E|-|---------------------------------------|
B|-|---------------------------------------|
G|-|-9-9-9-9-9-9--7-7-7-7-7-7-7-7-7-7-7-7--|
D|-|-x-x-x-x-x-x--x-x-x-x-x-x-x-x-x-x-x-x--|
A|-|-7-7-7-7-7-7--5-5-5-5-5-5-5-5-5-5-5-5--|
D|-|-0-0-0-0-0-0--0-0-0-0-0-0-0-0-0-0-0-0--|

E|-|--------------------------------------------------------------------|
B|-|--------------------------------------------------------------------|
G|-|-11-11-11-11-11-11--10-10-10-10-10-10-10-10-10-10-10-10-10-10-10-10-|
D|-|--x--x--x--x--x--x--x--x--x--x--x--x--x--x--x--x--x--x--x--x--x--x--|
A|-|--9--9--9--9--9--9--8--8--8--8--8--8--8--8--8--8--8--8--8--8--8--8--|
D|-|--0--0--0--0--0--0--0--0--0--0--0--0--0--0--0--0--0--0--0--0--0--0--|

E|-|---------------------------------------------------------------------|
B|-|---------------------------------------------------------------------|
G|-|-10-10-10-10-10-10-10-10-10-10-10-10-10-10-10-10--9-9-9-9-9-9--7-7-7-|
D|-|--x--x--x--x--x--x--x--x--x--x--x--x--x--x--x--x--x-x-x-x-x-x--x-x-x-|
A|-|--8--8--8--8--8--8--8--8--8--8--8--8--8--8--8--8--7-7-7-7-7-7--5-5-5-|
D|-|--0--0--0--0--0--0--0--0--0--0--0--0--0--0--0--0--0-0-0-0-0-0--0-0-0-|

E|-|-------------------|
B|-|-------------------|
G|-|-7-7-7-7-7-7-7-7-7-|
D|-|-x-x-x-x-x-x-x-x-x-|
A|-|-5-5-5-5-5-5-5-5-5-|
D|-|-0-0-0-0-0-0-0-0-0-|
Composición de Lamb of God
Colaboración y revisión:
  • Ivair Junior
63 vistas
    • ½ Tono
    • A
    • Bb
    • B
    • C
    • Db
    • D
    • Eb
    • E
    • F
    • F#
    • G
    • Ab
  • Agregar a la lista

    0 comentarios

    Ver todos los comentarios

    ¿Lograste tocar?

    0 Tocaron 0 Aún no

    ¡Graba un video tocando In Your Words y envíanoslo!

    00:00 / 00:00
    Outros vídeos desta música
    Repetir Calidad Automático
    Outros vídeos desta música
    00:00 / 00:00
    Automático
    OK