Cifra Club

Walk With Me In Hell

Lamb of God

Tab de bajo: Principal
Album:Sacrament
Tuning: Drop D

let all the notes in the intro ring.
G|---------------------------------------------------------------------------|
D|---------------------------------------------------------------------------|x3
A|---------------------------------------------------------------------------|
D|-0------------------0-------------------0----------------------------------|

G|---------------------------------------------------------------------------|
D|---------------------------------------------------------------------------|
A|---------------------------------------------------------------------------|
D|-0---------------------------0-----------10--------------------------------|

G|---------------------------------------------------------------------------|
D|---------------------------------------------------------------------------|x3
A|---------------------------------------------------------------------------|
D|-8------------------8-------------------8----------------------------------|

G|---------------------------------------------------------------------------|
D|---------------------------------------------------------------------------|
A|---------------------------------------------------------------------------|
D|-8--------------------------8-----------10---------------------------------|

G|---------------------------------------------------------------------------|
D|---------------------------------------------------------------------------|x3
A|---------------------------------------------------------------------------|
D|-0------------------0-------------------0----------------------------------|

G|---------------------------------------------------------------------------|
D|---------------------------------------------------------------------------|
A|---------------------------------------------------------------------------|
D|-0---------------------------0-----------10--------------------------------|

G|---------------------------------------------------------------------------|
D|---------------------------------------------------------------------------|
A|---------------------------------------------------------------------------|
D|-8------------------8-------------------8----------------------------------|

G|---------------------------------------------------------------------------|
D|---------------------------------------------------------------------------|
A|---------------------------------------------------------------------------|
D|-8------------------8-----------------------8-10v--------------------------|

G|---------------------------------------------------------------------------|
D|---------------------------------------------------------------------------|x3
A|---------------------------------------------------------------------------|
D|-0-10-12--0-10-12--0-10-12-13-12-10--0-10-12-13----------------------------|

G|---------------------------------------------------------------------------|
D|---------------------------------------------------------------------------|
A|---------------------------------------------------------------------------|
D|-0-12-10--0-10-8--0-8-7--0-7-5--0-5-3-1------------------------------------|

G|---------------------------------------------------------------------------|
D|---------------------------------------------------------------------------|
A|---------------------------------------------------------------------------|
D|-0-0-0-0-0-0---0-0-0-0--1-0--0-0-0-0-0-0---0-12-10--0-10-8--0-8-7--0-7-5--0|

G|---------------------------------------------------------------------------|
D|---------------------------------------------------------------------------|
A|---------------------------------------------------------------------------|
D|-5-3-1---------------------------------------------------------------------|

G|---------------------------------------------------------------------------|
D|---------------------------------------------------------------------------|
A|-----------------------------------------5-3-1-3-1-0-1---------------------|
D|-6-6-6-6-6-6-6-6--7-6-7-6--6-6-6-6-6---6---------------7-5-7-5-3-5-3-1-----|

G|---------------------------------------------------------------------------|
D|---------------------------------------------------------------------------|
A|---------------------------------------------------------------------------|
D|0-0-0-0-0-0--0-0-0-0--1--0-0-0-0-0-0-0-------------------------------------|

G|------------------------------------------------------------------------------|
D|--------------------------------------------5\\4---5-7-8-7-5-7-5-4-5----------|
A|-------------------------------------6\\5-------------------------------------|
D|-0-0-0-0-1-0-0-0--0-0-0-0-1-0-0-0-0------0------0-----------------------------|

G|------------------------------------------------------------------------------|
D|------------------------------------------5\\4----5-7-8-7-5--12-10-8-10-------|
A|------------------------------------6\\5--------------------------------------|
D|0-0-0-0-1-0-0-0--0-0-0-0-1-0-0-0-0------0-----0-------------------------------|

G|---------------------------------------------------------------------------|
D|---------------------------------------------------------------------------|
A|---------------------------------------------------------------------------|
D|-8-8-8-8-8-8--8-8-8-8--10-8-10-8--8-8-8-8-8--12-10-8-10-8-7-8-7-5-7-5-3-5-3|

G|---------------------------------------------------------------------------|
D|---------------------------------------------------------------------------|
A|---------------------------------------------------------------------------|
D|-1-0-----------------------------------------------------------------------|

G|---------------------------------------------------------------------------|
D|---------------------------------------------------------------------------|
A|---------------------------------------------------------------------------|
D|0-0--0-0-0-0--0--0-0--0-0-0-0--0--0-0--0-0-0-0--0--0-0---0-0-0--3-1-4-3-1-4|

G|---------------------------------------------------------------------------|
D|---------------------------------------------------------------------------|
A|---------------------------------------------------------------------------|
D|-3-1---0-0---0-0-0-0--0--0-0-----------------------------------------------|
                                 etc

G|---------------------------------------------------------------------------|
D|---------------------------------------------------------------------------|
A|---------------------------------------------------------------------------|
D|-0-0-0-0-0-0-0-0-0--0-0-0--0-0-0-0--7-7-7-7-7--7-7-7--7-7-7-7-7-7-7-7--3-3-|

G|---------------------------------------------------------------------------|
D|---------------------------------------------------------------------------|
A|---------------------------------------------------------------------------|
D|-3-3-6-6-6-6-6--6-6-6--6-6-6-6--7-7-7-7--3--3-3-3--3-3-3-3-3--5-5-5-5------|

G|---------------------------------------------------------------------------|
D|---------------------------------------------------------------------------|
A|---------------------------------------------------------------------------|
D|-0-0-0--0-0-0-0-0-0-0-0-0-0-0-0-0-0---7-7-7-7-7-7-7-7-7-7-7-7-7-7-7-7-7--3-|

G|---------------------------------------------------------------------------|
D|---------------------------------------------------------------------------|
A|---------------------------------------------------------------------------|
D|-3-3-3--6-6-6-6-6-6-6-6-6-6-6-6--7-7-7-7--3-3-3-3-3-3-3-3--5-5-5-5--0-0-0-0|

I know i didn\'t put all of the song in order and stuff but once you look this over and 
you\'ll get it.
00:00 / 00:00
Otros videos de esta canción
Repetir
Otros videos de esta canción
Composición de Lamb of God
187 vistas

0 comentarios

Ver todos los comentarios

¿Lograste tocar?

0 Tocaron 0 Aún no

¡Graba un video tocando Walk With Me In Hell y envíanoslo!

00:00 / 00:00
OK