Cifra Club

Loco (Tu Forma de Ser)

Los Auténticos Decadentes

Cifrado: Versão 5 (guitarra y guitarra eléctrica)
tono: A
   A
Te vi llegar del brazo de un amigo
          C#m
cuando entraste al bar

te caiste al piso
       Bm
me  tiraste  el pinguino

me tiraste un sifon
     E
estallaron los vidrios de mi corazon

    A
Te vi bailar brillando por tu ausencia
        C#m
sin sentir piedad

chocando con las mesas
       Bm
te burlaste de todos
te reiste de mi
       E
tus amigos escaparon de vos


                A
A mi me volvio loco tu forma de ser
                C#m
a mi me volvio loco tu forma de ser
      Bm
tu egoismo en tu soledad
        E                           A
son estrellas en la noche de la mediocridad

          A
E|-9--9--9----7-7-7---5-5-5---5--7--5--7--12--12--12-14--12-|
B|-10-10-10---9-9-9---7-7-7---7--9--7--9--14--14--14-14--14-|
G|----------------------------------------------------------|
D|----------------------------------------------------------|
A|----------------------------------------------------------|
E|----------------------------------------------------------|

E|---12h14--11h13-10--10--10--9---7----7-7-7-5-4---5-5-5--5-5-7|
B|---14-----13----12--12--12--10--9----9-9-9-7-5---4-4-7--7-7-9|
G|-------------------------------------------------------------|
D|-------------------------------------------------------------|
A|-------------------------------------------------------------|
E|-------------------------------------------------------------|
A mi me volvio loco...
Composición de Jorge Serrano
8 vistas
    • ½ Tono
    • A
    • Bb
    • B
    • C
    • Db
    • D
    • Eb
    • E
    • F
    • F#
    • G
    • Ab
  • Agregar a la lista

    0 comentarios

    Ver todos los comentarios

    ¿Lograste tocar?

    0 Tocaron 0 Aún no

    ¡Graba un video tocando Loco (Tu Forma de Ser) y envíanoslo!

    00:00 / 00:00
    Outros vídeos desta música
    Repetir Calidad Automático
    Outros vídeos desta música
    00:00 / 00:00
    Automático
    OK