Cifra Club

Sube a Nacer Conmigo Hermano

Los Jaivas

Cifrado: Versão 2 (guitarra y guitarra eléctrica)
Selo Cifra Club: esta cifra foi revisada para atender aos critérios oficiais da nossa Equipe de Qualidade.
tono: Cm
E|------------|------------|------------| |
B|------------|------------|------------| |
G|-3h4p3h4...-|------------|------------| |
D|------------|-4h5p4h5...-|-3h4p3h4...-| |
A|------------|------------|------------| |
E|------------|------------|------------| |

Esto se repite muchas veces en la canción (x ej: al final o después que dice:
'yo vengo a hablar por nuestra boca muerta'):

E|-------------|-------------|-------------|-------|---------| |
B|-------------|-------------|-------------|-------|---------| |
G|-------------|-------------|-------------|---7-8-|---------| |
D|-----8-6-9-6-|-8-----------|-----8-6-9-6-|-8-----|---------| |
A|-6-9---------|---8-5-----5-|-6-9---------|-------|-----5-6-| |
E|-------------|-------6-8---|-------------|-------|-6-8-----| |


Solo 1:

E|-18~---------|-16-18~---------|----16-18-18-18-18-18-16h18p16-------16-----|
B|-----19~-18~-|--------19~-18~-|-19----------------------------19-18----18~-|
G|-------------|----------------|--------------------------------------------|
D|-------------|----------------|--------------------------------------------|
A|-------------|----------------|--------------------------------------------|
E|-------------|----------------|--------------------------------------------|

E|-16/18-18-18~----------------------------|
B|-------------19-19-18-18-----------------|
G|-------------------------20-20-20-19-----|
D|-------------------------------------20~-|
A|-----------------------------------------|
E|-----------------------------------------|

E|-----------------------------------------|--------------------------------------| |
B|-------14/16-16-16-16-18-16----16-18-----|-19-19-19-19--------------------------| |
G|-15-15----------------------19-------19~-|-------------20-20-18-18| -13-16-15~-||
D|-----------------------------------------|--------------------------------------| |
A|-----------------------------------------|--------------------------------------| |
E|-----------------------------------------|--------------------------------------| |


G  O 2:

E|--------------------------18~-16-----|----------------------------------19-18~-|
B|----------------18---------------18~-|----------------18-------21-19-18--------|
G|-------20-19-20----20-19-------------|-------20-19-20----20-19-----------------|
D|----20-------------------------------|----20-----------------------------------|
A|-18----------------------------------|-18--------------------------------------|
E|-------------------------------------|-----------------------------------------|

E|-----18(x7)-19p18----18~-|----18(x7)-19h18----18-----|
B|------------------21-----|-----------------21----18~-|
G|-------------------------|---------------------------|
D|--20---------------------|-20------------------------|
A|-------------------------|---------------------------|
E|-------------------------|---------------------------|

E|----------------------------------19-18~-|
B|----------------18-------21-19-18--------|
G|-------20-19-20----20-19-----------------|
D|----20-----------------------------------|
A|-18--------------------------------------|
E|-----------------------------------------|

E|----------------------------------19-18~-|----18(x7)-19h18----18~-|
B|----------------18-------21-19-18--------|-----------------21-----|
G|-------20-19-20----20-19-----------------|------------------------|
D|----20-----------------------------------|-20---------------------|
A|-18--------------------------------------|------------------------|
E|-----------------------------------------|------------------------|

E|---------------------------|----------------------------------19-18~-|
B|----16(x7)-19p18-16-18-----|----------------18-------21-19-18--------|
G|-----------------------15~-|-------20-19-20----20-19-----------------|
D|---------------------------|----20-----------------------------------|
A|-18------------------------|-18--------------------------------------|
E|---------------------------|-----------------------------------------|

E|-------------------------18~-16---------------| |
B|----------------18--------------18~-----------| |
G|-------20-19-20----20-19----------------------| |
D|----20----------------------------------------| |
A|-18-------------------------------------------| |
E|----------------------------------------------| |
Otros videos de esta canción
    164 exhibiciones
      • ½ Tono
      • Am
      • Bbm
      • Bm
      • Cm
      • C#m
      • Dm
      • Ebm
      • Em
      • Fm
      • F#m
      • Gm
      • G#m
    • Agregar a la lista

    Afinación de cifrado

    Afinador online

      OK