Cifra Club

Sube a Nacer Conmigo Hermano

Los Jaivas

Cifrado: Versão 3 (guitarra y guitarra eléctrica)
Selo Cifra Club: esta cifra foi revisada para atender aos critérios oficiais da nossa Equipe de Qualidade.
tono: Ebm
Intro: D#m  G#m   A#  x3

teclado:
Gb   Bb  Eb  D  Eb  F  Eb  Db  Bb  Ab  F 
Gb   Bb  Eb  D  Eb  F  Eb  Db  Ab  Gb   F  B  Bb 
Bb  Bb  Bb  Bb  Bb  Bb  Bb  Bb  B  Bb  Ab  Bb 
Bb  Bb  Bb  Bb  Bb  Bb  Bb  Bb  B  Bb  Ab  Bb  F 
Gb   Bb  Eb  D  Eb  F  Eb  Db  Ab  Gb   F  B  Bb 
Gb   Bb  Eb  D  Eb  F  Eb  Db  Ab  Gb   F  B  Bb 
Bb  Bb  Bb  Bb  Bb  Bb  Bb  Bb  B  Bb  Ab  Bb 
Bb  Eb  Eb  Eb  Eb  Eb  Eb  Eb  Gb   F  Eb  F  Bb 
Gb   Bb  Eb  D  Eb  F  Eb  Db  Ab  Gb   F  B  Bb 
Gb   Bb  Eb  D  Eb  F  Eb  Db  Bb  Ab  F 

 D#m    G#m     A# 
Sube a nacer conmigo hermano
 D#m    G#m     A# 
Dame la mano desde la profunda zona
 D#m    G#m     A# 
de tu dolor diseminado.

(siguen los mismos acordes)

no volverás, del fondo de las rocas
no volverás, del tiempo subterráneo
no volverá, tu voz enfurecida
no volverán, tus ojos taladrados
Sube a nacer conmigo hermano.

teclado:
Eb  Gb   Bb  Ab  B  Ab  Bb  F  D  Bb  C  D 
Eb  Gb   Bb  Ab  B  Ab  Bb  D  Bb   Bb  C  D  Eb 

mírame desde el fondo de la tierra
labrador, tejedor, pastor callado
domador de guanacos tutelares,
albañil del andamio desafiado.

Aguador de las lagrimas andinas,
joyero de los dedos machacados,
agricultor temblando en la semilla,
alfarero en tu greda derramado.
traed a la copa de esta nueva vida
vuestros viejos dolores enterrados.
sube a nacer conmigo hermanoooooooooo.....

E|-18~---------|-16-18~---------|
B|-----19~-18~-|--------19~-18~-|
G|-------------|----------------|
D|-------------|----------------|
A|-------------|----------------|
E|-------------|----------------|

E|----16-18-18-18-18-18-16h18p16-------16-----|
B|-19----------------------------19-18----18~-|
G|--------------------------------------------|
D|--------------------------------------------|
A|--------------------------------------------|
E|--------------------------------------------|

E|-16/18-18-18~----------------------------|
B|-------------19-19-18-18-----------------|
G|-------------------------20-20-20-19-----|
D|-------------------------------------20~-|
A|-----------------------------------------|
E|-----------------------------------------|

E|-----------------------------------------|
B|-------14/16-16-16-16-18-16----16-18-----|
G|-15-15----------------------19-------19~-|
D|-----------------------------------------|
A|-----------------------------------------|
E|-----------------------------------------|

E|--------------------------------------| |
B|-19-19-19-19--------------------------| |
G|-------------20-20-18-18| -13-16-15~-||
D|--------------------------------------| |
A|--------------------------------------| |
E|--------------------------------------| |



Mostradme vuestra sangre y vuestro surco,
decidme: "... Aquí fui castigado!..."
porque la joya no brillo o la tierra
no entrego a tiempo la piedra o el grano.

Señalarme la piedra en que ciaste
y la madera en que os crucificaron,
encendedme los viejos pedernales,
las viejas lamparas, los largos pegados,
a través de los siglos en las llagas,
y las hachas de brillo ensangrentado.
Yo vengo a hablar por vuestra boca muertaaaa

teclado:
Eb  Gb   Bb  Ab  B  Ab  Bb  D  Bb   Bb  C  D  Eb 

Gb   Bb  Eb  D  Eb  F  Eb  Db  Bb  Ab  F 
Gb   Bb  Eb  D  Eb  F  Eb  Db  Ab  Gb   F  B  Bb 
Bb  Bb  Bb  Bb  Bb  Bb  Bb  Bb  B  Bb  Ab  Bb 
Bb  Bb  Bb  Bb  Bb  Bb  Bb  Bb  B  Bb  Ab  Bb  F 
Gb   Bb  Eb  D  Eb  F  Eb  Db  Ab  Gb   F  B  Bb 
Gb   Bb  Eb  D  Eb  F  Eb  Db  Ab  Gb   F  B  Bb 
Bb  Bb  Bb  Bb  Bb  Bb  Bb  Bb  B  Bb  Ab  Bb 
Bb  Eb  Eb  Eb  Eb  Eb  Eb  Eb  Gb   F  Eb  F  Bb 
Gb   Bb  Eb  D  Eb  F  Eb  Db  Ab  Gb   F  B  Bb 
Gb   Bb  Eb  D  Eb  F  Eb  Db  Bb  Ab  F 

Contadme todo, cadena a cadena,
eslabón a eslabón paso a paso
afilad los cuchillos que guardasteis.
Ponedlos en mi pecho y en mi mano
como un río de rayos amarillos,
como un río de tigres enterrados,
y dejadme llorar,
horas, días, años
edades ciegas, siglos estelares.

teclado:
Eb  Gb   Bb  Ab  B  Ab  Bb  F  D  Bb  C  D 
Eb  Gb   Bb  Ab  B  Ab  Bb  D  Bb   Bb  C  D  Eb 
Otros videos de esta canción
    57 exhibiciones
      • ½ Tono
      • Am
      • Bbm
      • Bm
      • Cm
      • C#m
      • Dm
      • Ebm
      • Em
      • Fm
      • F#m
      • Gm
      • G#m
    • Agregar a la lista

    Afinación de cifrado

    Afinador online

      OK