Cifra Club

Dried Up Tied And Dead To The World

Marilyn Manson

Cifrado: Principal (guitarra y guitarra eléctrica)
tono: D
Intro
e|-------------------------------------------------------
B|-------------------------------------------------------
G|-------------------------------------------------------
D|-------------------------------------------------------
A|--7----7-7-7-7----7-7-7-5----5-5-5-5-7-----------------
E|--0----0-0-0-0----0-0-0-0----0-0-0-0-0-----------------

Verse 1
e|-------------------------------------------------------
B|-------------12-12---------------12-12-----------------
G|--10\9----12-12-12----10\9----12-12-12-----------------
D|--10\9----------------10\9-----------------------------
A|---8\7-----------------8\7-----------------------------
E|-------------------------------------------------------
("Cake on some more make|-up...")

Riff 1
e|--12-13-12---12-13-12---12-13-12-13-15-16^-------------
B|-------------------------------------------------------
G|-------------------------------------------------------
D|-------------------------------------------------------
A|-------------------------------------------------------
E|-------------------------------------------------------
("Don't you want some of this?")

Verse 2
e|-------------------------------------------------------
B|-------------------------------------------------------
G|-------------------------------------------------------
D|-----------------5-5-5h7--------------------5----------
A|--7-7-7-5-5-5-7----------7---7-7-7-5-5-5-7--5--7-7-7---
E|--------------------------------------------3----------

(continued) 
e|-------------------------------------------------------
B|-------------------------------------------------------
G|-------------------------------------------------------
D|-----------5-5-5h7-------------------------------------
A|--5-5-5-7----------7-----------------------------------
E|-------------------------------------------------------

Chorus (each hit 8 times)
e|-------------------------------------------------------
B|-------------------------------------------------------
G|--9---7---4---5---9---7---4---5------------------------
D|--9---7---4---5---9---7---4---5------------------------
A|--7---5---2---3---7---5---2---3------------------------
E|--0---0---0---0---0---0---0---0------------------------
("I'll be your lover...")

Bridge (clean)
e|-------------------------------------------------------
B|-------------------------------------------------------
G|--9-9-9-7-7-9--12-12-12-12/14-14-14--9-9-9-7-7-9-------
D|--9-9-9-7-7-9--12-12-12-12/14-14-14--9-9-9-7-7-9---5---
A|--7-7-7-5-5-7--10-10-10-10/12-12-12--7-7-7-5-5-7---5---
E|---------------------------------------------------3---

(continued)
e|-------------------------------------------------------
B|-------------------------------------------------------
G|--9-9-9-7-7-9--12-12-12-12/14-14-14--9-9-9-7-7-9--12---
D|--9-9-9-7-7-9--12-12-12-12/14-14-14--9-9-9-7-7-9--12---
A|--7-7-7-5-5-7--10-10-10-10/12-12-12--7-7-7-5-5-7--10---
E|-------------------------------------------------------

(continued)
e|-------------------------------------------------------
B|-------------------------------------------------------
G|--12-12-12/14-14-14------------------------------------
D|--12-12-12/14-14-14------------------------------------
A|--10-10-10/12-12-12------------------------------------
E|-------------------------------------------------------

Riff 2
e|--14-12-10-12---14^---14-12-10-12---14^----------------
B|-------------------------------------------------------
G|-------------------------------------------------------
D|-------------------------------------------------------
A|-------------------------------------------------------
E|-------------------------------------------------------

Outro A (Guitar 1, palm muted)
e|------------------------12^-----------------------12^--
B|-------------------------------------------------------
G|-------------------------------------------------------
D|--2-2---2-2---2-2---2--------2-2---2-2---2-2---2-------
A|--2-2---2-2---2-2---2--------2-2---2-2---2-2---2-------
E|--0-0---0-0---0-0---0--------0-0---0-0---0-0---0-------

Outro B (Guitar 2)
e|-------------------------------------------------------
B|--5---4---3---5--4---3-------5---4---3----5--4---3-----
G|------------------------3^--------------------------3^-
D|-------------------------------------------------------
A|-------------------------------------------------------
E|-------------------------------------------------------

Intro
Verse 1
Riff 1
Verse 2
Chorus
Riff 1
Verse 1
Chorus
Bridge, Verse 2
Chorus
Chorus, Riff 2
Outro A
Outro A, B
===========
Marilyn Manson

dried up, tied and dead to the world

riff 1 
e||----------------13------||
B||----------------11--11--||
G||--10101010--10------10--||
D||--x-x-x-x---10----------||
A||--8-8-8-8---------------||
D||------------------------||

riff 2 
e||-------------------------------------------||
B||--5-5-6--5---5-5-6--5---5-5-6--5--7--8--9--||
G||-------------------------------------------||
D||-------------------------------------------||
A||-------------------------------------------||
D||-------------------------------------------||
        
 ||--e|-e|-F--e|---e|-e|-F--e|---e|-e|-F--e|--F#-G--G#-

riff 3 (chorus riff)
e||------------------------------------------------------------------
B||------------------------------------------------------------------
G||--9-9-9-9-9-9-9-9-9-9-9-9-9-9-9-9-7-7-7-7-7-7-7-7-7-7-7-7-7-7-7-7-
D||--9-9-9-9-9-9-9-9-9-9-9-9-9-9-9-9-7-7-7-7-7-7-7-7-7-7-7-7-7-7-7-7-
A||--7-7-7-7-7-7-7-7-7-7-7-7-7-7-7-7-5-5-5-5-5-5-5-5-5-5-5-5-5-5-5-5-
D||------------------------------------------------------------------

riff 3 continuaçãO
e||------------------------------------------------------------------|
B||------------------------------------------------------------------|
G||--4-4-4-4-4-4-4-4-4-4-4-4-4-4-4-4-5-5-5-5-5-5-2-2-2-2-2-2-2-2-2-2-|
D||--4-4-4-4-4-4-4-4-4-4-4-4-4-4-4-4-5-5-5-5-5-5-2-2-2-2-2-2-2-2-2-2-|
A||--2-2-2-2-2-2-2-2-2-2-2-2-2-2-2-2-3-3-3-3-3-3-0-0-0-0-0-0-0-0-0-0-|
D||------------------------------------------------------------------|

riff 5 (1x sem distorção e depois com)               
e||---------------------------------------------||
B||---------------------------------------------||
G||--9-9-9-7-7-7-9---12-14---9-9-9-7-7-7---5----||
D||--9-9-9-7-7-7-9---12-14---9-9-9-7-7-7---5----||
A||--7-7-7-5-5-5-7---10-12---7-7-7-5-5-5---3----||
D||---------------------------------------------||riff 7a (
e||-----------------------------||
B||------------------------4^5--||
G||-----------------------------||
D||--2-2---2-2---2-2----2-------||
A||--2-2---2-2---2-2----2-------||
D||--2-2---2-2---2-2----2-------||

riff 7b (
e||------------------------||
B||--5--4--3----5-4--3-----||
G||---------------------2--||
D||------------------------||
A||------------------------||
D||------------------------||

 ||--e|--Eb-D|----e|-Eb-D|--A--||
00:00 / 00:00
Otros videos de esta canción
Repetir
Otros videos de esta canción
Composición de Marilyn Manson / Twiggy Ramirez
Colaboración y revisión:
  • Brian Hugh
120 exhibiciones
    • ½ Tono
    • A
    • Bb
    • B
    • C
    • Db
    • D
    • Eb
    • E
    • F
    • F#
    • G
    • Ab
  • Agregar a la lista
    00:00 / 00:00
    OK