Cifra Club

I Want You (She's So Heavy)

The Beatles

Tablatura: Principal (guitarra)
Tom: C
Intro: Dm Dm/F E7(9-) Bb7 A5+

(riff intro)    
       Dm          Dm/F        E7(9-)        Bb7         A5+
E|---------1-----------1------------1-----------1-----------1~---|
B|-------3---3-------3---3--------3-----------3---3-------2------|
G|-----2-------2---2-------2---1------------1-------1---2--------|
D|---0-----------3-----------2-----------------------------------|
A|------------------------------------3-2-1-----------0----------|
E|---------------------------------------------------------------|

        Am
I want you  I want you so bad  I want you
Am            Am   C         Dm        F        Em         Am   Am7
I want you so ba___ad it's driving me mad it's driving me mad
       Dm  Dm7
I want you   You know I want you so bad babe  I want you
Dm            Dm   F         G         Bb        G     G#  A   E7(9-)*
I want you so ba___ad it's driving me mad it's driving me mad

E7(9-)*  (riff baixo)  (2x)
        
         Dm  Dm/F E7(9-)  Bb7  A5+
She's so                  heavy
          Dm  Dm/F  E7(9-) Bb7 A5+
She's so heavy

   (riff refrão)  
     Am
E|------------------------------------------------------------------------------------|
B|------------------------------------------------------------------------------------|
G|------5-7b~-------------5-7-7b9-9r7-5---5-5h7-------------5-7b9r7b9r7b9r7b9---------|
D|---/7--------7-7-7---/7---------------7--------7-7-7---/7--------------------7-7-7--|
A|-------------7-7-7-----------------------------7-7-7-------------------------7-7-7--|
E|-------------5-5-5-----------------------------5-5-5-------------------------5-5-5--|

      Am                   C   Dm     F    Em   Am
E|-----------------------------------------------------------|
B|-----------------------------------------------------------|
G|------5-7-7b9-9r7-5---5------------------------------------|
D|---/7---------------7---7-5---5-5h7-5----------7-7-7-7-7---|
A|----------------------------7---------7-5-3----7-7-7-7-7---|
E|--------------------------------------------5--5-5-5-5-5---|
  
      Dm
E|----------------------------------------------------------------------------------------------|
B|----------------------------------------------------------------------------------------------|
G|-------10-12b~------------10-12-12b14-14r12-10----10-10h12-------------10-12b14r12b14r12b14---|
D|---/12----------------/12----------------------12------------------/12------------------------|
A|----------------------------------------------------------------------------------------------|
E|----------------------------------------------------------------------------------------------|

      Dm                            F    G         Bb        G  G# A
E|------------------------------------------------------------------|
B|------------------------------------------------------------------|
G|-------10-12-12b14-14r12-10----10---------------------------------|
D|---/12----------------------12----12-10----10-10h12-10------------|
A|----------------------------------------12--------------10-11-12--|
E|------------------------------------------------------------------|
                                
      E7(9-)*             (riff baixo)
E|---0---|           E|-------------------|        
B|---6---|           B|-------------------|         
G|---7---|           G|-------------------|         
D|---6---|           D|----------2-0------|        
A|---7---|           A|--------2-----0----|         
E|---0---|           E|--3-2-1---------0--|
reproducciones 18.620
Acordes para:
    Composição: John Lennon / Paul McCartney Colaboración y revision:
    • Lucas Carvalho
    • rafael hirata
    • João Silva

    0 comentarios

    mostrar más comentarios

    ¿Conseguiste tocar?

    13 tocaron 4 aún no

    ¡Graba un vídeo tocando I Want You (She's So Heavy) y envianoslo!

    00:00 / 00:00
    outros vídeos desta música
    repetir qualidade Automático
    Outros vídeos desta música
    00:00 / 00:00
    Automático
    OK