Cifra Club

Michelle

The Beatles

Cifrado: Versão 5 (guitarra y guitarra eléctrica)
tono: Ab
[Intro]

E|------8------8-----8-----8-----8--6-----7/8--------|
B|------9------9-----9-----9-----6--6--9--7/8--------|
G|--10--10--9--9--8--8--7--7--6--6--6-----7/8--------|
D|----------------------------------------9/10-------|
A|---------------------------------------------------|
E|---------------------------------------------------|

F          Bbm    
Michelle,   ma belle
Eb                             C         C    C7/G
These are words that go together well, my Michelle

F          Bbm    
Michelle,   ma belle,
Eb                              C                    C   C7/G
Sont les mots qui vont tres bien ensemble, tres bien ensemble

  Fm                     Fm         G#   G#7/D#           C#
I love you, I love you, I love you, that's all I want to say
  C     C7/G      Fm  
Until I find a way

         Fm     Fm/E                   C#7+         C    C7/G
I will say the only words I know that you'll understand.

F          Bbm    
Michelle,   ma belle,
Eb                             C                    C    C7/G
Sont les mots qui vont tres bien ensemble, tres bien ensemble

  Fm                    Fm         G#   G#7/D#       C# 
I need to, I need to, I need to, I need to make you see
  C     C7/G    Fm  
Oh what you mean to me
      Fm     Fm/E                   C#7+         C    C7/G
     Until I do I'm hoping you will know what I mean
F
I love you

[Solo]
         F    F/C    Bbm Bbm/F  Eb  Eb/Bb  Dº    Bº   C    1º| C#    C  |   2º| C#    C  |
E|---------------------------------------------------| |----------|     |----------|
B|---------------------------------------------------| |----------|     |----------|
G|-----------3-5-6--6/1--0--0-1-3--------------------| |----------|     |---1------|
D|-3--3-5-7------------------------1--3--3-5-6--0--2-| |-0-2-3-2--|     |-0---3-2--|
A|---------------------------------------------------| |----------|     |----------|
E|---------------------------------------------------| |----------|     |----------|
      1º|    C/G     Fm  |    2º|C/G        F |
E|-|----------------| |-------------|
B|-|----------------| |-------------|
G|-|----------0-1---| |---------0---|
D|-|----0-2-3-------| |---0-2-3---3-|
A|-|--3-------------| |-3-----------|
E|-|----------------| |-------------|

  Fm                    Fm         G#   G#7/D#       C#  
I want you, I want you, I want you, I think you know by now
C       C7/G        Fm  
I'll get to you somehow
       Fm     Fm/E                 C#7+          C
     Until I do I'm telling you so you'll understand

F          Bbm    
Michelle,   ma belle,
Eb                             C                    C    C7/G
Sontles mots qui vont tres bien ensemble, tres bien ensemble
        Fm     Fm/E                 C#7+          C    C7        F  
I will say the only words I know that you'll understand, my Michelle
Composición de John Lennon / Paul McCartney
Colaboración y revisión:
  • Ikki SA
23 vistas
  • Simplificar cifrado
    • ½ Tono
    • A
    • Bb
    • B
    • C
    • Db
    • D
    • Eb
    • E
    • F
    • F#
    • G
    • Ab
  • Agregar a la lista

    0 comentarios

    Ver todos los comentarios
    00:00 / 00:00
    Outros vídeos desta música
    Repetir Calidad Automático
    Outros vídeos desta música
    00:00 / 00:00
    Automático
    OK