Cifra Club

Sgt. Pepper's Lonely Heart's Club Band

The Beatles

Cifrado: Principal (guitarra y guitarra eléctrica)
tono: D
[Intro]

     A7
E|---------------------------------|------------------------------|
B|-------------------8-10----------|-------------------8-10-------|
G|----------------/9---------------|----------------/9------------|
D|---------------------------------|------------------------------|
A|---------------------------------|------------------------------|
E|---------------------------------|------------------------------|

     C7                                G7
E|-----------------8---10--8-------|------------------------------|
B|-----------8-10--------------8---|------------------------------|
G|--------/9-----------------------|-7----------------------------|
D|---------------------------------|------------------------------|
A|---------------------------------|------------------------------|
E|---------------------------------|------------------------------|

[Primeira Parte]

       G7                    A7
It was twenty years ago today
          C7                           G7
Sergeant Pepper taught the band to play
             G7                       A7
They've been going in and out of style
            C7                         G7
But they're guaranteed to raise a smile
   A7
So may I introduce to you
    C7
The act you've known for all these years
G7                C7                      G7
Sergeant Pepper's Lonely Heart's Club Band

[Solo] C7  F7  C7  D7

[Refrão]

      G                 Bb            C7        G
We're Sergeant Pepper's Lonely Heart's Club Band
   C7                          G7
We hope you will enjoy the show
G                 Bb            C7        G
Sergeant Pepper's Lonely Heart's Club Band
   A7                          D7
Sit back and let the evening go

[Ponte]

C7
Sergeant Pepper's Lonely
G7
Sergeant Pepper's Lonely
A7
Sergeant Pepper's Lonely
C7           G7
Heart's Club Band

     C7
It's wonderful to be here
     F7
It's certainly a thrill
       C7
You're such a lovely audience
      D7
We'd  like to take you home with us

We'd love to take you home

[Segunda Parte]

        G7                        A7
I don't really wanna stop the show
       C7                           G7
But I thought you might like to know
          G7                       A7
That the singer's gonna sing a song
        C7                        G7
And he wants you all to sing along
   A7
So may I introduce to you
    C7
The one and only Billy Shears
G7                C7                      G7
Sergeant Pepper's Lonely Heart's Club Band
00:00 / 00:00
Otros videos de esta canción
Repetir
Otros videos de esta canción
Composición de John Lennon / Paul McCartney
Colaboración y revisión:
15.890 exhibiciones
    • ½ Tono
    • A
    • Bb
    • B
    • C
    • Db
    • D
    • Eb
    • E
    • F
    • F#
    • G
    • Ab
  • Agregar a la lista
    00:00 / 00:00
    OK