Cifra Club

Me voy a quitar de en medio

Vicente Fernández

Cifrado: Principal (guitarra y guitarra eléctrica)
Selo Cifra Club: esta cifra foi revisada para atender aos critérios oficiais da nossa Equipe de Qualidade.
tono: Dm
E|-5-4-5-4-5-6-5---------6-5--------6-5------|
B|---------------5----5------5----5-------|
G|------------------6-----------6------|
D|------------------------------------|
A|---------------------------------------|
E|--------------------------------------|

E|--9-8-9-8-9-10-9-------10-9----------------|
B|----------------9----9-------------|
G|------------------10--------------|
D|----------------------------------|
A|----------------------------------|
E|---------------------------------------|
Otros videos de esta canción
    127 exhibiciones
      • ½ Tono
      • Am
      • Bbm
      • Bm
      • Cm
      • C#m
      • Dm
      • Ebm
      • Em
      • Fm
      • F#m
      • Gm
      • G#m
    • Agregar a la lista

    Afinação da cifra

    Afinador online

      Ops (: Contenido disponible solo en portugués.
      OK