Cifra Club

Temptation Greets You Like Your Naughty Friend

Arctic Monkeys

Tablatura: Principal (guitarra)
Tom: G
INTRO/VERSE
It should be:

E |----------------------------------------------------------------------|
B |----------------------------------------------------------------------|
G |----------------------------------------------------------------------|
D |----7-10--------7-10--------7-10--------7-10--------------------------|
A |--0-----------0-----------0----------0--------------------------------|
E |---------0-0---------0-0---------0-0---------0-0----------------------|

play this riff as many times as you need to cover the intro/verse. I may
not have written the repeated part of this riff enough times, but i can't
be bothered to count. I think it's written enough times.

CHORUS

E |----------------------------------------------------------------------|
B |----------------------------------------------------------------------|
G |----------------------------------------------------------------------|
D |-------------------9--9-9-9-------------------------------------------|
A |--7--7-7-10--10-10-7--7-7-7-12-10-9-7---------------------------------|
E |--5--5-5-8---8--8-----------10-8--7-5---------------------------------| X2

During the rapping bit, play the verse tab, untill 2:45, when you play this once:

Pre-chorus

E |----------------------------------------------------------------------|
B |----------------------------------------------------------------------|
G |----------------------------------------------------------------------|
D |------------9--999999-------------------------------------------------|
A |--7-9-10-12-7--777777-12--121212121212-10--101010101010-9-------------|
E |--5-7-8--10-----------10--101010101010-8---8-8-8-8-8-8--7-------------|
 then play chorus.
reproducciones 255
Acordes para:
    Composição: Alex Turner / Arctic Monkeys / Dizzee Rascal Colaboración y revision:
    • washington moreira

    0 comentarios

    mostrar más comentarios

    ¿Conseguiste tocar?

    2 tocaron 0 aún no

    ¡Graba un vídeo tocando Temptation Greets You Like Your Naughty Friend y envianoslo!

    00:00 / 00:00
    outros vídeos desta música
    repetir qualidade Automático
    Outros vídeos desta música
    00:00 / 00:00
    Automático
    OK