Cifra Club

Eligiendo a una reina

Chancho En Piedra

Cifrado: Principal (guitarra y guitarra eléctrica)
Selo Cifra Club: esta cifra foi revisada para atender aos critérios oficiais da nossa Equipe de Qualidade.
tono: E

E|---------------------|-----------------|----------------|
B|---------------------|-----------------|----------------|
G|---------------------|-----------------|----------------|
D|---------------------|-----------------|----------------|
A|---------------------|-----------------|---7-7----------|
E|-0-3-5-6-5-0-3-0-0-3-|-5-3-5-6-5-0-3-0-|-3--------------|


E|-----------------|-------------|--------------------|
B|-----------------|-------------|--------------------|
G|-----------------|-------------|--------------------|
D|-----------------|-------------|--------------------|
A|-----------------|-------------|-3-3-2-2--3-2-------|
E|-0-3-5-6-5-0-3-0-|-5-6-3-5-3-0-|--------------5-3-0-|


Bm                           Fm 
Queremos ver las reinas del mañana
Bm                  Fm    Ebm 
con bikini toda la semana
Bm                     Fm 
debe tener carita de muñeca
F#         A#            B       4°cuerda 9-7
Desde niña hacer dieta para su silueta


Debe tener desplante al hablar
y si es que gana se debe emocionar
ser nuestra cara en el extranjero
Dejando bien en clñaro que en Chile hay buen cuero

CORO

Al ganar sera sensacion
de las revistas y al television
pieza clave de los estelares
Dira que le gustan los niños y animales

Se creera toda una artista
pololeara con futbolista
solo dira lo justo y necesario
Todo lo que haga debe salir en el diario

Coro
Solo de guitarra
E|------------------|-------------------------|----------------|----------------|
B|------------------|-------------------------|----------------|----------------|
G|------------------|-------------------------|----------------|----------------|
D|------12-------11-|----11-12-12/13-12-11-12-|----12-------11-|----------------|
A|---13----13-12----|-12----------------------|-13----13-12----|-13-13-12-------|
E|------------------|-------------------------|----------------|----------12----|

E||-------------------|-------------------------|
B||-------------------|-------------------------|
G||-------------------|-------------------------|
D||-------12-------11-|----11-12-12/13-12-11-12-|
A||----13----13-12----|-12----------------------|
E||-------------------|-------------------------|    

E|------------------|------------------------|
B|------------------|------------------------|
G|------------------|------------------------|
D|------12-------11-|----11-12-14-14-12-11---|
A|---13----13-12----|-12---------------------|
E|------------------|------------------------|

Coro

Podremos ver su par de buenas tetas
promocionando productos de belleza
su matrimonio sera fenomenal
Estara invitado todo nuestro jet set nacional

En el futuro sera animadora
ojala que a vieja llegue seductora
a los cuarenta se hara la cirujia
Su pega es ser rica para toda nuestra vida

Coro
E||-------------------|-------------------------|
B||-------------------|-------------------------|
G||*------------------|-------------------------|
D||*------12-------11-|----11-12-12/13-12-11-12-|
A||--//13----13-12----|-12----------------------|
E||-------------------|-------------------------| 

E|------------------|------------------------| ¡
B|------------------|------------------------| ¡
G|------------------|------------------------| ¡
D|------12-------11-|----11-12-14-14-12-11---| ¡
A|-//13----13-12----|-12---------------------| ¡
E|------------------|------------------------| ¡
Otros videos de esta canción
    116 exhibiciones
      • ½ Tono
      • A
      • Bb
      • B
      • C
      • Db
      • D
      • Eb
      • E
      • F
      • F#
      • G
      • Ab
    • Agregar a la lista

    Afinação da cifra

    Afinador online

      Ops (: Contenido disponible solo en portugués.
      OK