Cifra Club

Lo que no fue ya no será

El Gran Silencio

Chords: Principal (acoustic and electric guitars)
tone: C
intro

   C                               F          G2

E|------0---------0--------|------------1------------3-|--------------|
B|--1-----1---0------------|--------1-----1--------3---|--------------|
G|----0---------0----------|----------2-----2----4-----|--------------|
D|-------------------------|-------------------5-------|--------------|
A|--3---------3------------|--------3------------------|--------------|
E|-------------------------|---------------------------|--------------|



después se repite lo anterior mientras entra la trompeta con algo asi:


E|------7-7-8-10-----------|---7-8-8-7-5---------------|--------------|
B|-------------------------|---------------------------|--------------|
G|-------------------------|---------------------------|--------------|
D|-------------------------|---------------------------|--------------|
A|-------------------------|---------------------------|--------------|
E|-------------------------|---------------------------|--------------|



C                     Em         F         G
De tus manos yo aprendi a beber agua...
00:00 / 00:00
Other videos of this song
Repeat
Other videos of this song
Composed by ??
1 views
    • ½ Tone
    • A
    • Bb
    • B
    • C
    • Db
    • D
    • Eb
    • E
    • F
    • F#
    • G
    • Ab
  • Add to list
    00:00 / 00:00
    OK