Cifra Club

Heroes Of Sand

Kiko Loureiro

Cifrado: Principal (guitarra y guitarra eléctrica)
tono: D
Solo:
E|-------------------------------------------------
B|7-------7-8-7-------7-8-10---7s----5-------------
G|--7---7-------7---7--------7s----7---4-6b--------
D|----9-----------9-------------------------9---7--
A|--------------------------------------------9----
E|-------------------------------------------------

E|--------------------------------------------------------------------------
B|7-------7-8-7-------7-8-10---7--7-8---------------------------------------
G|--7---7-------7---7--------7--9-----9/11---7-9-11/12-11~--9-7-6-----------
D|----9-----------9------------------------------------------------9---7--9-
A|-------------------------------------------------------------------9------
E|--------------------------------------------------------------------------

E|-------------------------7------------------------------------------------
B|7-------7-8-7-------7-10---10-8-7-8-7h8p7---------------------------------
G|--7---7---------9-7-----------------------7-6-7-6-4-2-4--0-4-6-7--0-6-7-9-
D|----9---------------------------------------------------------------------
A|--------------------------------------------------------------------------
E|--------------------------------------------------------------------------

E|-------------------------------------------------------------------------------------------------------
B|-------------------------------------------------------------------------------------------------------
G|---7-9-11-12-11-9---9-11-11~~---14/16-12~--11b-9-7-9/11~-12rb11~--11-9-7-9-7--5-4-5-4h5p4-----4---4/9--
D|-9----------------12----------------------------------------------------------------------7-5---5------
A|-------------------------------------------------------------------------------------------------------
E|-------------------------------------------------------------------------------------------------------
00:00 / 00:00
Otros videos de esta canción
Repetir
Otros videos de esta canción
Compositor no encontrado.
Colaboración y revisión:
  • Rodolfo Inácio
60 vistas
    • ½ Tono
    • A
    • Bb
    • B
    • C
    • Db
    • D
    • Eb
    • E
    • F
    • F#
    • G
    • Ab
  • Agregar a la lista

    0 comentarios

    Ver todos los comentarios

    ¿Lograste tocar?

    1 Tocaron 0 Aún no

    ¡Graba un video tocando Heroes Of Sand y envíanoslo!

    00:00 / 00:00
    OK