Cifra Club

See You In Your Dreams

Kiss

Tab de bajo: Principal
Key:
/    = slide up
\    = slide down
b    = bend (whole step)
b^   = bend (1/2 step)
b^^  = bend (1 1/2 steps)
pb   = pre-bend
r    = release-bend
t    = tap with righthand finger
h    = hammer-on
p    = pull-off
~    = Vibrato
*    = Natural Harmonic
#(#) = Trill
**   = Artificial Harmonic
x    = Dead notes (no pitch)
P.M. = Palm mute (- -> underneath indicates which notes)
(\)  = Dive w\bar
(/)  = Release w\bar
Tp   = Tap w\plectrum





Rhythm Fig. 1
                                                  
G|----------------------------------------------------|
D|----------------------------------------------------|
A|--------------3--2--0-------------------------7--6--|
E|--0--5--0--3----------------------------------------|
   < - - - - 2x - - - - >
  




Rhythm Fig. 2a
                                                
G|----------------------------------------------------|
D|----------------------------------------------------|
A|--5----5----5--------5-------5----5-----------------|
E|---------------5--7------------------3--5-----------|



G|----------------------------------------------------|
D|----------------------------------------------------|
A|--3----3----3--------3-----3------------------------|
E|---------------3--5-------------3--3----------------|



Rhythm Fig. 2b

G|----------------------------------------------------|
D|----------------------------------------------------|
A|--5----5----5--------5-------5----5-----------------|
E|---------------5--7------------------3--5-----------|



End 1
                                            
G|-----------------------7/-------19\-----------------|
D|----------------------------------------------------|
A|--3-----------5-------------------------------------|
E|-------3--------------------------------------------|



End 2
                                                
G|------------------------------7/-----19\------------|
D|----------------------------------------------------|
A|--3--2--0-------2--3--5-----------------------------|
E|-----------3----------------------------------------|




Rhythm Fig. 3
                                                      
G|----------------------------------------------------|
D|----------------------------------------------------|
A|----------------------------------------------------|
E|--5--5--5--5--5--5--5--5--5--5--5--5--5--5--5--5----|



End 1
                                                 
G|----------------------------------------------------|
D|--------------------5-----4-------------------------|
A|--7----7--5----5-------------7--5----5--4-----------|
E|-------------------------------------------7--------|


End 2
                                                 
G|----------------------------------------------------|
D|----------------------------------------------------|
A|--3----3--5-----------------------------------------|
E|---------------0--0--1-----1--1--3----3--3----------|



End 3
                                                 
G|----------------------------------------------------|
D|----------------------------------------------------|
A|--3----3--5----7--5---------------------------------|
E|---------------------1-----3--1--3----5--3----------|



Rhythm Fig. 4
                                                    
G|--------------------7----------------------7--------|
D|----------------------------------------------------|
A|--5--5--5--5--5--5-------5--5--5--5--5--5-----------|
E|----------------------------------------------------|
                      P                      P


End 1
                                               
G|----------------------------------------------------|
D|----------------------------------------------------|
A|--3------3--3--------3-----3------------------------|
E|---------------3--5-------------3--3----------------|



End 2
                                                
G|------------------------------7/-----19\------------|
D|----------------------------------------------------|
A|--3--2--0-------2--3--5-----------------------------|
E|-----------3----------------------------------------|



Rhythm Fig. 5
                                                    
G|-----------------9-----------------------9----------|
D|----------------------------------------------------|
A|--7--7--7--7--7-----7\----7--7--7--7--7-----7\------|
E|----------------------------------------------------|


                                                 
G|----------------------------------------------------|
D|-----------------7----------------------------------|
A|--5--5--5--5--5-----5--5-----5----------------------|
E|----------------------------------5--5--------------|


                                                      
G|----------------------------------------------------|
D|----------------------------------------------------|
A|--7--7--7--7--7--7--7--7--7--7--7--7--7--7--7--5----|
E|----------------------------------------------------|


                                                   
G|----------------------------------------------------|
D|----------------------------------------------------|
A|----4-----------------------------------------------|
E|-------7--5----4--5--7----7--7--7--7--7--7--7-------|


                                                      
G|----------------------------------------------------|
D|----------------------------------------------------|
A|----------------------------------------------------|
E|--7--7--7--7--7--7--7--7--7--7--7--7--7--7--7--7----|



Rhythm Fig. 6
                                                  
G|----------------------------------------------------|
D|----------------------------------------------------|
A|----------------------------------------------------|
E|--5----5----5----3--5-----------3h4h5--------3h4h5--|






SEE YOU IN YOUR DREAMS 
Simmons

[Rhy. Fig 1]

[Rhy. Fig 2a]
The party's over, you're in the corner, 
you're all alone for the night 
[Rhy. Fig 2b w/ End 1]
And you pick up a phone, you want me to hold 
Well dry your eyes, it's alright, it's alright 

[Rhy. Fig 3 w/ End 1]
See you, feel you in your dreams tonight 
[Rhy. Fig 3 w/ End 2]
See you, feel you in your dreams tonight, dreams tonight 

[Rhy. Fig 2a] (2x)
When you're in the room, you're home too soon,
you can't get me out of your mind 
And you get in bed, you cover your head,
my letter to you is signed 
[Rhy. Fig 4 w/ End 1]
I love you, you know I do, but take me home tonight 
[Rhy. Fig 4 w/ End 2]
And think of me, I think of you, baby baby it's alright,
it's alright yeah 

[Rhy. Fig 3 w/ End 1]
See you, feel you in your dreams tonight 
[Rhy. Fig 3 w/ End 3]
See you, feel you in your dreams tonight, dreams tonight 

[Rhy. Fig 5]

[Rhy. Fig 2a]
When you're in the room, you're home too soon, 
you can't get me out of your mind 
[Rhy. Fig 2b w/ End 2]
When you get in bed, you cover your head, my letter to you is signed 
And this is what I'm sayin' 

[Rhy. Fig 3 w/ End 1]
See you, feel you in your dreams tonight 
[Rhy. Fig 3 w/ End 13]
See you, feel you in your dreams tonight, dreams tonight 
(repeat this section 4x)
[Rhy. Fig 3 w/ End 1]
See you, feel you in your dreams tonight 

[Rhy. Fig 6]
00:00 / 00:00
Otros videos de esta canción
Repetir
Otros videos de esta canción
Composición de Gene Simmons
17 vistas

0 comentarios

Ver todos los comentarios

¿Lograste tocar?

0 Tocaron 0 Aún no

¡Graba un video tocando See You In Your Dreams y envíanoslo!

00:00 / 00:00
OK