Cifra Club

A Devil In Gods Country

Lamb of God

Cifrado: Principal (guitarra y guitarra eléctrica)
tono: E
Album: As The Palaces Burn




.  - palm mute           /  - slide up to
\  - slide down to       ~  - vibrato
p  - pull off            Suffixes for bend
t  - tap                 f  - full bend    h - half bend
ph - pinched harmonic    q  - quarter bend t - tap bend
*  - see comment         ^  - Hold bend    r release bend
,  - slight palm mute    () - ghost note, sustained note
"  - tremolo note         - Trill

Tuning, Drop D, D,A,D,G,B,E

*Drum Intro*

Riff 1
|--------------------------------------------------------------|
|--------------------------------------------------------------|
|--------------------------------------------------------------|
|---------------------------p----------------------------------|
|--5-----6-----8-----6-----98----5-----6-----8-----6---5--3/7--|
|----0-0---0-0---0-0---0-0---0-0---0-0---0-0---0-0---0-50-3/7--|
     . .   . .   . .   . .   . .   . .   . .   . .   .

Con't.
|-------------------------------------------------------------|
|-------------------------------------------------------------|
|-------------------------------------------------------------|
|-------------------------------------------------------------|
|--5-----6-----8-----6-----98----3-333-3-333-1-111-1----------|
|----0-0---0-0---0-0---0-0---0-0-3-333-3-333-1-111-1-1-0-1-3--|
     . .   . .   . .   . .   . .   ...   ...   ...

Repeat
Third time make all individual notes into their respective power
chords.

Riff 2(Verse)
|----------------------------------------------|
|----------------------------------------------|
|----------------------------------------p--p--|
|----------------------------p--p--p--p-54-76--|
|---------------------------65-65-87-87--------|
|--0-0-0-0-000-01-00-03013-0--0--0--0--0-------|
   . . . . ... .. .. ..... .  .  .  .  .

Con't.
|---------------------------------------------|
|---------------------------------------------|
|----------------------------------------p----|
|----------------------------p--p--p--p-75-h--|
|---------------------------65-65-87-87---78--|
|--0-0-0-0-000-01-00-03013-0--0--0--0--0------|
   . . . . ... .. .. ..... .  .  .  .  .
Chorus
|-------------------------------------------------|
|-------------------------------------------------|
|-------------------------------------------------|
|--8--8--8----8-8--------------7-7----7-7--7/8\7--|
|--6--6--6----6-6---44444444---5-5----5-5--5/6\5--|
|---0--0--000--0-00-44444444-00-0-000----00-------|
    .  .  ...  . ..          .. . ...    ..
Bridge
|----------------------------------------------------|
|----------------------------------------------------|
|----------------------------------------------------|
|------------------------hp--------------------------|
|-----------------------232---------------------3-2--|
|--6-5-0-3-5-3-0-6-5-0-3---3-5-6-5-0-5-3-0-6-5-3-----|

|----------------------------------------------------|
|----------------------------------------------------|
|----------------------------------------------------|
|------------------------hp--------------------------|
|-----------------------232-------3-2----------------|
|--6-5-0-3-5-3-0-6-5-0-3---3-5-3-0-0--0-111111144444-|
First time all palm muted on the E string
Second time, no palm mutes.

Riff one again.
Verse Riff twice
Chorus twice

Breakdown with Devin
|--------------------------------|
|--------------------------------|
|--------------------------------|
|--------------------------------|
|---6-6--6-6---6-6-6-6--6-6---6-6|
|---606006-6000606-606006-60006-6|
     . ..   ... .   . ..   ...
Repeat until end.
Composición de Lamb of God
27 vistas
    • ½ Tono
    • A
    • Bb
    • B
    • C
    • Db
    • D
    • Eb
    • E
    • F
    • F#
    • G
    • Ab
  • Agregar a la lista

    0 comentarios

    Ver todos los comentarios

    ¿Lograste tocar?

    0 Tocaron 0 Aún no

    ¡Graba un video tocando A Devil In Gods Country y envíanoslo!

    00:00 / 00:00
    Outros vídeos desta música
    Repetir Calidad Automático
    Outros vídeos desta música
    00:00 / 00:00
    Automático
    OK