Cifra Club

Viviré Por Siempre

Los Auténticos Decadentes

Cifrado: Principal (guitarra y guitarra eléctrica)
tono: D
Intro: 
E|-||-----2-5-5-5-5-5--7-5h7p5--2--2-0---2---0-2------ 
B|-||---3------------------------------2---2---------- 
G|-||-2----------------------------------------------- 
D|-||------------------------------------------------- 
A|-||------------------------------------------------- 
E|-||------------------------------------------------- 

E|-||--2-0-2--3-2-0-3-2-0-3-2-0-3-2-0--2-0----555-3-7-3-9--999-7-5-7 
B|-||--------------------------------------3------------------------ 
G|-||--------------------------------------------------------------- 
D|-||--------------------------------------------------------------- 
A|-||--------------------------------------------------------------- 
E|-||--------------------------------------------------------------- 

Esta es la parte de las trompetas: 

E|-||--10--10-7--7------------12-10-9-10-9-------------------------- 
B|-||--------------10--10--10---------------12---------------------- 
G|-||------------------------------------------11--9--7------------- 
D|-||--------------------------------------------------------------- 
A|-||--------------------------------------------------------------- 
E|-||--------------------------------------------------------------- 

Aca vuelve la parte con guitarra, lo hace bien rapido: 

E|-||-10101010101010--7-7------------------------------------------- 
B|-||--------------------------------------------------------------- 
G|-||--------------------------------------------------------------- 
D|-||--------------------------------------------------------------- 
A|-||--------------------------------------------------------------- 
E|-||--------------------------------------------------------------- 

Mas Trompetas... y bastante rapido too: 

E|-||--------------------------------------------------------------- 
B|-||--10-11-12-11-10-11-12-11-10----------------------------------- 
G|-||--------------------------------------------------------------- 
D|-||--------------------------------------------------------------- 
A|-||--------------------------------------------------------------- 
E|-||--------------------------------------------------------------- 

Mas guitarra..., en esta parte no se bien como hace el efecto ese.. 
pero igual... como que suelta las cuerdas rapido o algo asi... 

E|-||---17--12--15-------------------------------------------------- 
B|-||--------------------------------------------------------------- 
G|-||--------------------------------------------------------------- 
D|-||--------------------------------------------------------------- 
A|-||--------------------------------------------------------------- 
E|-||--------------------------------------------------------------- 

Y la ùltima trompeta del Intro... Finally!!!: 

E|-||--------------------------------------------------------------- 
B|-||--10-10-11-12-11-10-------------------------------------------- 
G|-||--------------------------------------------------------------- 
D|-||--------------------------------------------------------------- 
A|-||--------------------------------------------------------------- 
E|-||--------------------------------------------------------------- 

Es imposible saber lo que pasa después de la vida 
si se supiera igual sería muy dificil de explicar 
es evidente que el paso del tiempo es irreversible 
y si vivís cada segundo a pleno serás el dueño de la eternidad 

Es importante cuidar la salud y a la gente querida 
porque empezó la cuenta regresiva no se puede detener 
no se puede detener 

Estribillo: 

cuando me llegue la muerte viviré por siempre en tu corazón                                       
cuando me busques en tus pensamientos me darás tu aliento 
y asi volveré. (x2) 

(Esta parte de las trompetas es asi, se usa SOLO la primer 
cuerda, y se repite 2 veces, con la diferencia que en la 
segunda parte en vez de terminar en 5-3-0 lo hace en 5-7-9): 

e|-||-9-10-10-10-10--9-7-9-10-10-10-9-7-7-9-9-9-9-7-6-7-9-9-9-7-6-7- 

E|-||-5--3-----5--3--0---------------------------------------------- 

Es muy probable que sea fantasía que existe el infierno 
no me parece que haya varias vidas 
pero si vuelvo quiero ser un rey 

El universo no tiene final ni ha tenido un principio 
pero empezó la cuenta regresiva y no se puede detener 
no se puede detener. 

(Despues se repite el Estribillo 2 veces y de vuelta el mismo 
punteadito de siempre 1 sola vez). 

Estribillo: 

Cuando me llegue la muerte viviré por siempre en tu corazón 

(Esto es solo en la primera cuerda como lo anterior despues de 
esta parte): 

E|-||-7777-555-333-2-1-0--9999-777-7-6-5---7-6-5-------------------- 

Cuando me llegue la muerte viviré por siempre en tu corazón 

E|-||------3-77777-10-9-7-5-3--3-5--3-0----------------------------- 
B|-||----5---------------------------------------------------------- 
G|-||--4------------------------------------------------------------ 
D|-||--------------------------------------------------------------- 
A|-||--------------------------------------------------------------- 
E|-||--------------------------------------------------------------- 

(Esta parte de las trompetas se repite 4 veces ya en el final): 

E|-||--2---------------0-2----0---------------0-- 
B|-||------3---------3-----3-----2--------0-2---- 
G|-||----------2---2---------------3----3-------- 
D|-||---------------------------------4----------(no termina aca) 
A|-||-------------------------------------------- 
E|-||-------------------------------------------- 

E|-||-----------------2h3p2-0--------------------------------------- 
B|-||-3--2-0----0-2-3----------3-2-0-------------------------------- 
G|-||---------0-----------------------2----------------------------- 
D|-||--------------------------------------------------------------- 
A|-||--------------------------------------------------------------- 
E|-||---------------------------------------------------------------
Composición de Jorge Serrano
Colaboración y revisión:
  • Fernandes
531 vistas
    • ½ Tono
    • A
    • Bb
    • B
    • C
    • Db
    • D
    • Eb
    • E
    • F
    • F#
    • G
    • Ab
  • Agregar a la lista

    0 comentarios

    Ver todos los comentarios

    ¿Lograste tocar?

    0 Tocaron 0 Aún no

    ¡Graba un video tocando Viviré Por Siempre y envíanoslo!

    00:00 / 00:00
    Outros vídeos desta música
    Repetir Calidad Automático
    Outros vídeos desta música
    00:00 / 00:00
    Automático
    OK