Cifra Club

Aprenda

Plate Of Brown

Red Hot Chili Peppers

Tablatura: Principal (guitarra)
tono: G
[Intro]

E|---------------------------------------------------------------------------|
B|---------------------------------------------------------------------------|
G|-11b13br11-9-9s8------11b13br11-9-9s6--------------------------------------|
D|---------------------------------------------------------------------------|
A|---------------------------------------------------------------------------|
E|---------------------------------------------------------------------------|

[Parte Principal]

E|-15-15-15-15-15-15---------------------------------------------------------|
B|-15-15-15-15-15-15---------------------------------------------------------|
G|---------------------------------------------------------------------------|
D|---------------------------------------------------------------------------|
A|---------------------------------------------------------------------------|
E|---------------------------------------------------------------------------|

E|-15-15-15-15-15-15---------------------------------------------------------|
B|-15-15-15-15-15-15---------------------------------------------------------|
G|-------------------------12h14-12------------------------------------------|
D|---------------------------------------------------------------------------|
A|---------------------------------------------------------------------------|
E|---------------------------------------------------------------------------|

E|-15-15-15-15-15-15-------15h17-15------------------------------------------|
B|-15-15-15-15-15-15-----------------15h17-15--------------------------------|
G|---------------------------------------------14pb-14-12--------------------|
D|---------------------------------------------------------------------------|
A|---------------------------------------------------------------------------|
E|---------------------------------------------------------------------------|

E|-14-15--12-14--10-12--7-10---------10-------10-------10--------------------|
B|------------------------------10-12----10-12----10-12----------------------|
G|---------------------------------------------------------------------------|
D|---------------------------------------------------------------------------|
A|---------------------------------------------------------------------------|
E|---------------------------------------------------------------------------|

E|-14-15--12-14--10-12--7-10-------------------------------------------------|
B|----------------------------10-12--8-10--7-8--5-3--------------------------|
G|---------------------------------------------------------------------------|
D|---------------------------------------------------------------------------|
A|---------------------------------------------------------------------------|
E|---------------------------------------------------------------------------|

E|-14-15--12-14--10-12--7-10---------10-------10-------10--------------------|
B|------------------------------10-12----10-12----10-12----------------------|
G|---------------------------------------------------------------------------|
D|---------------------------------------------------------------------------|
A|---------------------------------------------------------------------------|
E|---------------------------------------------------------------------------|

E|-14-15--12-14--10-12--7-10---------10----15s17-15------------17pb-17-15----|
B|------------------------------10-12--12------------15s17-15----------------|
G|---------------------------------------------------------------------------|
D|---------------------------------------------------------------------------|
A|---------------------------------------------------------------------------|
E|---------------------------------------------------------------------------|

E|-12-12-12-12-12-12-------16-16-16-16-16-16---------------------------------|
B|-10-10-10-10-10-10-------14-14-14-14-14-14---------------------------------|
G|-x--x--x--x--x--x--------14-14-14-14-14-14---------------------------------|
D|-11-11-11-11-11-11-------14-14-14-14-14-14---------------------------------|
A|-9--9--9--9--9--9--------12-12-12-12-12-12---------------------------------|
E|---------------------------------------------------------------------------|

E|-12--12-12-----------------------------------------------------------------|
B|-9---9--9--------16--17-16-------------------------------------------------|
G|-9---9--9--------16--16-16-------------------------------------------------|
D|-11--11-11-------16--16-16-------------------------------------------------|
A|-x---x--x--------14--14-14-------------------------------------------------|
E|-9---9--9------------------------------------------------------------------|

[Variação]

E|---------------------------------------------------------------------------|
B|------------------10-------------------------------------------------------|
G|-11b13br11-9-9-9s8--8----11b13br11-9-9s6-----------------------------------|
D|---------------------------------------------------------------------------|
A|---------------------------------------------------------------------------|
E|---------------------------------------------------------------------------|
Colaboración y revision:
  • Pedro Rodrigues
5 reproducciones
    • ½ Tono
    • A
    • Bb
    • B
    • C
    • Db
    • D
    • Eb
    • E
    • F
    • F#
    • G
    • Ab
  • Adicionar à lista

    0 comentarios

    Ver todos os comentários

    ¿Conseguiste tocar?

    0 Tocaram 0 Ainda não

    Grave um vídeo tocando Plate Of Brown e nos envie!

    00:00 / 00:00
    outros vídeos desta música
    repetir qualidade Automático
    Outros vídeos desta música
    00:00 / 00:00
    Automático
    OK