Cifra Club

Soul To Squeeze

Red Hot Chili Peppers

Tab de bajo: Principal
reproducciones 491
[Intro]

G|-/14-------14----14h16-14------------------------------------|
D|-----14h16----16---------------------------------------------|
A|----------------------------0-0-0-0-0-0-0-0--0-0-0-0-0-0-0-0-|
E|-------------------------------------------------------------|

G|------------------------------------------------------------|
D|------------------------------------------------------------|
A|-0-0-0-0-0-0-0-0--0-0-0-0-0-0-0-----------------------------|
E|------------------------------------------------------------|


[Verse]

                                   Soft
G|----------------------------------------------------------------|
D|--------------------0--2-3-----5/8------------------------------|
A|----------3-3--2-3----------1-------5-5---5-8---8---------------|
E|-1-1--3h5-------------------------------5-----6---8\---3-6--p5\-|

G|--------------------------------3-3-3-3---------------------|
D|--------------------0--2-3----3-----------------------------|
A|----------3-3--2-3----------1-------------------------------|
E|-1-1--3h5---------------------------------------------------|
 
G|------------------------------------------------------------|
D|------------------------------------------------------------|
A|-5-5---5-8---8----------------------------------------------|
E|-----5-----6---8-8-8\---3-6----\----------------------------|
     
      "I got a...."
G|------------------------------3-3-3-----------------------------|
D|--------------------0--2-3--------------------------------------|
A|----------3-3--2-3----------1-------5-5---5-8---8---------------|
E|-1-1--3h5-------------------------------5-----6---8\---3-6--p5\-|
  
G|--------------------------------3-3-3-3---------------------|
D|--------------------0--2-3----3-----------------------------|
A|----------3-3--2-3----------1-------------------------------|
E|-1-1--3h5---------------------------------------------------|
 
G|------------------------------------------------------------|
D|------------------------------------------------------------|
A|-5-5---5-8---8---10-----------8-----------------------------|
E|-----5-----6---8----8-6--8h10----10--6\---------------------|

G|------------------------------3-3-3-3-----------------------------|
D|--------------------0--2-3----------------------------------------|
A|----------3-3--2-3----------1---------5-5---5-8---8---------------|
E|-1-1--3h5---------------------------------5-----6---8\---3-6--p5\-|

                                   Soft
G|-------------------------------------------------------------|
D|--------------------0--2-3-----5/8-8-------------------------|
A|----------3-3--2-3----------1---------5-5---5-8---8----------|
E|-1-1--3h5---------------------------------5-----6---8\---3-6-|
 
 
[Chorus]

G|------------------------------------------------------------|
D|---7--8-10-----7-------5------------------------------------|
A|-8----------------8------5--5-5--7-8--------------10---8----|
E|-----------8--------------------------6--6---8h10----8------|

G|------------------------------------------------------------|
D|---7--8-10----7-7h8p7---5-----------------------------------|
A|-8-------------------8---5--5-5-5-5-7-8---------------------|
E|-----------8----------------------------5-5-5-6\------------|
  
 
  [Verse 2]
                                  Soft
G|-----------------------------------------------------------------|
D|--------------------0--2-3-----5/8-8-8---------------------------|
A|----------3-3--2-3----------1-----------5-5---5-8---8------------|
E|-1-1--3h5-----------------------------------5-----6---8\---3-6-6\|
 
                                   Soft
G|------------------------------------------------------------|
D|--------------------0--2-3-----5/8-8-8----------------------|
A|----------3-3--2-3----------1-------------------------------|
E|-1-1--3h5---------------------------------------------------|

G|------------------------------------------------------------|
D|------------------------------------------------------------|
A|-5-5---5-8---8---10----------8------------------------------|
E|-----5-----6---8----8-6-8h10----10-8-6\---------------------|


[Chorus]

G|------------------------------------------------------------|
D|---7--8-10-----7-------5------------------------------------|
A|-8----------------8------5--5-5--7-8------------------10--8-|
E|-----------8--------------------------6-6-6--6---8h10-------|
 
G|------------------------------------------------------------|
D|---7--8-10----10-8-7----------------------------------------|
A|-8------------------10\--5-5-5-5-5-5-7-8--------------------|
E|-----------8------------------------------5-5-5-6-6-6\------|
 
 
[Verse 3]

(Guitar Solo)

G|-----------------------------3-3-3-3---------------------------------|
D|--------------------0--2-3-------------------------------------------|
A|----------3-3--2-3---------1---------5-5---5-8---8-------------------|
E|-1-1--3h5--------------------------------5-----6---8-8-8\---3-6--p5\-|
   
G|--------------------------------------------------------------------|
D|--------------------0--2-3---5/8-8-8--------------------------------|
A|----------3-3--2-3---------1---------5-5---5-8---8------------------|
E|-1-1--3h5--------------------------------5-----6---8--8-8-8-8-8-8-8-|
 

[Bridge]

G|----7--10--/12-------5-----5---5------7--10--/10-------5-----5---5-|
D|--------8--/10---5h7---5h7---7------------8--/12---5h7---5h7---7---|
A|-5---------------------------------5-------------------------------|
E|-------------------------------------------------------------------|
   s  p   s              s   p s   p s p         s  p   s            s   p s   p s p 


G|----7--10--/12-------5-----5---5------7--10--/10--------------|
D|--------8--/10---5h7---5h7---7------------8--/12--------------|
A|-5---------------------------------5--------------------------|
E|---------------------------------------------------5-5-5-6-6\-|
   s  p   s              s   p s   p s p         s  p   s            
 
 
  [Verse 4]
                                   Soft
G|---------------------------------------------------------------|
D|--------------------0--2-3-----5/8-8-8-------------------------|
A|----------3-3--2-3----------1----------5-5---5-8---8-----------|
E|-1-1--3h5----------------------------------5-----6---8\---3-6\-|

G|--------------------------------3-3-3-3-|
D|--------------------0--2-3----3---------|
A|----------3-3--2-3----------1-----------|
E|-1-1--3h5-------------------------------|
 
G|----------------------------------------|
D|----------------------------------------|
A|-5-5---5-8---8---10-----------8---------|
E|-----5-----6---8----8-6--8h10----10-8-6-|

G|-----------------------------------------------------------------|
D|--------------------0--2-3-----5/8-8-----------------------------|
A|----------3-3--2-3----------1--------5-5---5-8---8-----------3---|
E|-1-1--3h5--------------------------------5-----6---8\---3-6\---3-|

G|----------------------------------------------------------------|
D|--------------------0--2-3-----5/8------------------------------|
A|----------3-3--2-3----------1-------5-5---5-8---8---------------|
E|-1-1--3h5-------------------------------5-----6---8-8-8\---3-6/-|

 
[Chorus]

G|-------------------------------------------------------------|
D|---7--8-10----7-7-8-7------------------7---------------------|
A|-8-------------------8-10\--5-5-5-7h8-----------------10-x-8-|
E|-----------8----------------------------6-6-6-6--8h10--------|

G|---------------10/12--10-------------------------|
D|---7---8---10----------------------7-8-10-8-7----|
A|-8---8---8------------------7-8-10------------10-|
E|--------------------------8----------------------|
 
G|--------------------------------|
D|--------------------------------|
A|-5-5-5-5-5-5-7-8----------------|
E|-----------------5-5-5-6--6-6-6-|

G|---------------10/12--10----------------------------|
D|---7---8---10----------------------7-8/10-7h8-x-----|
A|-8---8---8------------------7-8-10--------------10\-|
E|--------------------------8-------------------------|

G|---------------------------------------|
D|--------------7------------------------|
A|-5--5-5-5-7h8-------------------10---8-|
E|-----------------6--6-6-6--8h10----8---|

G|------------10/12-10----------------------------|
D|---7-7-8-10-------------10-12-10--8-10-8--7-8-7-|
A|-8----------------------------------------------|
E|----------------------8-------------------------|
  
G|--------------------------------|
D|--------------------------------|
A|-5-5-5-5-5-5-7-8----------------|
E|-----------------5-5-5-6\---(1)-|
Compositor: Anthony Kiedis / Chad Smith / Flea / John FruscianteColaboración y revision:
  • Gabriel Leite
  • Léo Coli

0 comentarios

    mostrar más comentarios

    ¿Conseguiste tocar?

    4tocaron0aún no

    ¡Graba un vídeo tocando Soul To Squeeze y envianoslo!

    00:00 / 00:00
    outros vídeos desta música
    repetirqualidadeautomática
    Outro vídeos desta música
      00:00 / 00:00
      automática
      OK