Cifra Club

The Zephyr Song

Red Hot Chili Peppers

Tablatura: Versão 2 (guitarra)
Tom: C
Intro:
E|-------------------------------------------------------------------------------------------------|
B|-------------------------------------------------------------------------------------------------|
G|-----------12---------------10-------------------4--------------5--------------9------------7----|
D|-------10---------------9--------------------5--------------7--------------10-----------9--------|
A|---12--------------10-------------------7---------------8-------------12------------10-----------|
E|-------------------------------------------------------------------------------------------------|

E|---------------------------------------|
B|---------------------------------------|
G|----------4-----------5----------------|
D|-------5----------7---7----------------|
A|----7----------8-----------------------|
E|---------------------------------------|

Riff 1:
E|----------------------------------------------------------------------------------------------|
B|----------------------------------------------------------------------------------------------|
G|-------------9-------12---10--9-------------7-----------10--9--7------------4------7---5---4--|
D|--------10--------------------------------9------------------------------5--------------------|
A|----12--------12---------------------10----------10------------------7--------7---------------|
E|----------------------------------------------------------------------------------------------|

E|-----------------------------------------------|
B|-----------------------------------------------|
G|----------5-----8/9---7---5--------------------|
D|-------7---------------------------------------|
A|----8------------------------------------------|
E|-----------------------------------------------|

Riff 2:
E|----------------------------------------------------------------------------------------------|
B|--------------------------10------------------------------------------------------------------|
G|------------9--------12-------9------------------7---------10---9---7---------------4---------|
D|-------10-----------------------------------9------------------------------------5------------|
A|--12----------12----------------------10------------10-----------------------7---------7------|
E|----------------------------------------------------------------------------------------------|

E|-----------------------------------------------|
B|--------5--------------------------------------|
G|-----7-----5--------4/5--------4/5-------------|
D|-----------------------------------------------|
A|----------------8----------8-------------------|
E|-----------------------------------------------|

Intro 2x: Am  G  Em  F

D
Fly away on my zephyr
G           A
I fell it more then ever
D
And in this perfect weather

We'll find a place together

(Riff 1 - 2x)

(Riff 2)

D
Fly away on my zephry
G             A
I fell it more then ever
D
And in this perfect weather
G                 A
We'll find a place together
D
In the water where the scent of my emotion
G                  A
All the world will pass me by
D
Fly away on my zephyr
G                A         Am
We'll find a place together
Solo:
E|------12--10---12-12----12---10---12---------------10---8--10-10----10---8----10----12-------|
B|--------------------------------------12^-----10---------------------------------------------|
G|---------------------------------------------------------------------------------------------|
D|---------------------------------------------------------------------------------------------|
A|---------------------------------------------------------------------------------------------|
E|---------------------------------------------------------------------------------------------|

E|---------------------|
B|----12^-----10-------|
G|---------------------|
D|---------------------|
A|---------------------|
E|---------------------|

E|------12--10---12-12----12---10---12---------------10---8--10-10----10---8----10----12-------|
B|--------------------------------------12^-----10---------------------------------------------|
G|---------------------------------------------------------------------------------------------|
D|---------------------------------------------------------------------------------------------|
A|---------------------------------------------------------------------------------------------|
E|---------------------------------------------------------------------------------------------|

E|---------------------|
B|----12^-----10-------|
G|---------------------|
D|---------------------|
A|---------------------|
E|---------------------|

Am                 G
wowowowowowowowowowowowo do you
Em                 F
yeyeyeyeyeyeyeyeyeyeyeye
Am                 G
wowowowowowowowowowowowo wont you
Em                 F
yeyeyeyeyeyeyeyeyeyeyeye

D
Fly away on my zephry
G             A
I fell it more then ever
D
And in this perfect weather
G                 A
We'll find a place together
D
In the water where the scent of my emotion
G                  A
All the world will pass me by
D
Fly away on my zephyr
G                A         Am
We'll find a place together
( D G A G A D )
Foreveeeeeeeeeeee
reproducciones 130
Acordes para:
    Composição: Anthony Kiedis / Chad Smith / Flea / John Frusciante Colaboración y revision:
    • Luigi Barreto
    • Renato Ramos
    • joao Leão

    0 comentarios

    mostrar más comentarios

    ¿Conseguiste tocar?

    4 tocaron 0 aún no

    ¡Graba un vídeo tocando The Zephyr Song y envianoslo!

    00:00 / 00:00
    outros vídeos desta música
    repetir qualidade Automático
    Outros vídeos desta música
    00:00 / 00:00
    Automático
    Capítulos
    • Tocando a música
    • Dicas Iniciais / Equipamentos
    • Acordes da Introdução
    • Tocando Introdução
    • Ensinando Introdução
    • Dicas Primeira Parte
    • Tocando Primeira Parte
    • Ensinando Primeira Parte - Primeira Estrofe
    • Ensinando Primeira Parte - Segunda Estrofe
    • Acordes Refrão
    • Tocando Refrão
    • Ensinando Refrão
    • Dicas Segunda Parte e Segundo Refrão
    • Tocando Segunda Parte e Segundo Refrão
    • Ensinando Segunda Parte
    • Ensinando Segundo Refrão
    • Dicas do Solo
    • Tocando Solo
    • Ensinando Solo - Parte 1 de 2
    • Ensinando Solo - Parte 2 de 2
    • Acordes Terceira Parte
    • Tocando Terceira Parte
    • Acordes Terceiro Refrão - Final
    • Tocando Terceiro Refrão - Final
    • Ensinando Final - Parte 1 de 5
    • Ensinando Final - Parte 2 de 5
    • Ensinando Final - Parte 3 de 5
    • Ensinando Final - Parte 4 de 5
    • Ensinando Final - Parte 5 de 5
    • Encerramento
    • Ficha técnica
    OK