Cifra Club

I Bet You Look Good On The Dancefloor

Arctic Monkeys

Tablatura: Principal (guitarra)
Tom: G
Intro - Lead

|---------------------------|
|---------------------------|
|---------------------------| 8X
|--4-x-4-4------------------|
|--4-x-4-4------------------|
|--2-x-0-2------------------|

|-----------------------------------------------------------------------|
|-----------------------------------------------------------------------|
|--------------------------------------14|||-16|||-16b||||||||----------|
|--------------------------14|||-16|||----------------------------------|
|--------12|||-14|||-16|||----------------------------------------------|
|--14|||----------------------------------------------------------------|


Verse
[Stop making the eyes at me..]

|----------------------------|
|----------------------------|
|--6-6--4-4------------------|
|--6-6--4-4--5-5--4-4--------|    x8
|--4-4--2-2--5-5--4-4--------|
|------------3-3--2-2--------|

Chorus
[I bet that you look good on the dancefloor..]

|----------------------------------------------------------------------|
|----------------------------------------------------------------------|
|-------------------9-----------------------9--------6-----------------|
|--4--------5-------9-x8----4-------5-------9--x8----6--x8-------------|
|--4-x8-----5-x8----7-------4-x16---5-x8----7--------4-----------------|
|--2--------3---------------2-------3----------------------------------|

Lead at end of chorus


|-----------------------------------------------------------------|
|-----------------------------------------------------------------|
|--11------9-9-9--9-9-9--7-------7-9-7-9--------9------9----------|
|------12-------------------9----------------11-----11------------|
|-----------------------------------------------------------------|
|-----------------------------------------------------------------|

----------------------------------------------------------------------|
----------------------------------------------------------------------|
-----14-----14--16--14--16b-------------------------------------------|
-16-----16------------------------------------------------------------|
----------------------------------------------------------------------|
----------------------------------------------------------------------|

Verse 2
[I wish you'd stop ignoring me..]

|------------------------------|
|------------------------------|
|--6-6--4-4--------------------|
|--6-6--4-4--5-5--4-4----------|    x8
|--4-4--2-2--5-5--4-4----------|
|------------3-3--2-2----------|

Chorus
[I bet that you look good on the dancefloor..]

|----------------------------------------------------------------------|
|----------------------------------------------------------------------|
|-------------------9------------------------9--------6----------------|
|--4--------5-------9-x8-----4-------5-------9--x8----6--x8------------|
|--4-x8-----5-x8----7--------4-x16---5-x8----7--------4----------------|
|--2--------3----------------2-------3---------------------------------|

Bridge
[Well there ain't no love, no montegues or capulets..]

|-------------------------------------------------------------------|
|-------------------------------------------------------------------|
|----------9-----------------------9--------------------------------|
|--7-------9--x8---4--------7------9--x8------------4---------------|
|--7-x8----7-------4-x16----7-x8---7----------------4--x16----------|
|--5---------------2--------5-----------------------2---------------|

Chorus
[I bet that you look good on the dancefloor..]

|-------------------------------------------------------------------------|
|-------------------------------------------------------------------------|
|--------------------9-------------------------9--------6-----------------|
|--4--------5--------9-x8----4--------5--------9--x8----6--x8-------------|
|--4-x8-----5-x8-----7-------4-x16----5-x8-----7--------4-----------------|
|--2--------3----------------2--------3-----------------------------------|

End on..

|----------|
|----------|
|----------|
|----4-----|
|----4-----|
|----2-----|
reproducciones 4.948
Acordes para:
    Composição: Alex Turner / Arctic Monkeys Colaboración y revision:
    • Edil Dias

    0 comentarios

    mostrar más comentarios

    ¿Conseguiste tocar?

    15 tocaron 3 aún no

    ¡Graba un vídeo tocando I Bet You Look Good On The Dancefloor y envianoslo!

    00:00 / 00:00
    outros vídeos desta música
    repetir qualidade Automático
    Outros vídeos desta música
    00:00 / 00:00
    Automático
    OK