Cifra Club

Stop The World I Wanna Get Off With You

Arctic Monkeys

Tablatura: Principal (guitarra)
Tom: A
[Verso]

D (E) F#m
Open sesame
(We've places to go)
D    (E)        F#m
We've people to see
(Let's put them on hold)
D     (E)            F#m
There's all sorts of shapes
That I bet you can make
D        (E)     F#m
When you have to escape
Say the word

[Ponte]

D                                 (E)      F#m
Now I know getting you alone isn't easy to do
         D                           (E)              F#m
With the exception of you, I dislike everyone in the room
      D                                      (E)          F#m
And I don't want to lie, but I don't want to tell you the truth
                                                  D
Get the sense that you're on the move, and you'll probably be leaving soon.
      (E)          F#m     E
So I'm telling you

[Refrão]

D                      F#m E D        F#m  E
Stop the world cause I wanna get off with you
D                      F#m E D       F#m  E
Stop the world cause I wanna get off with you

D (E) F#m
Ooooooooo
D (E) F#m E
Ooooooooo

[Verso]

D        (E)    F#m
Eyes the colour of
(Water left in wood)
D       (E)    F#m
Ice and sugar dust
(Crazy green flashes)
D     (E)     F#m
It's a funny thing that I cannot explain
D         (E)       F#m        E
Don't you know the train keeps rolling

[Refrão]

D                      F#m E D        F#m  E
Stop the world cause I wanna get off with you
D                      F#m E D       F#m  E
Stop the world cause I wanna get off with you

[Solo] D  F#m
       D  F#m
       D  F#m
       D  F#m  E

[Ponte]

D                                                F#m E
Well I know that getting you alone isn't easy to do
D                                                    F#m E
And I don't wanna lie and I don't wanna tell you the truth
D                                                F#m E
And I know we got places to go, we got people to see
D                                                  F#m E
Think we both ought put 'em on hold and I know you agree

[Refrão]

D                      F#m E D        F#m  E
Stop the world cause I wanna get off with you
D                      F#m E D            F#m
Stop the world cause I wanna get off with you

[Primeiro Verso]

E|-----------------------|
B|-----------------------|
G|-----------------------|
D|-----------------------|
A|5--5----7\-------------|
E|-----------2---2-4-5-0-|

[Refrão]

[Guitarra 1] D  F#m  E

[Guitarra 2]

E|-------------------------------------|
B|-------------------------------------|
G|---14---14---14---16--14-------------|
D|16---16---16---16--------16---14--16-|
A|-------------------------------------|
E|-------------------------------------|

[Ponte]

E|-----------------------|
B|-----------------------|
G|-----------------------|
D|-----------------------|
A|5--5----7\-------------|
E|-----------2---2-4-5-0-|

[Segundo Verso]

E|---------------------------------|
B|---------------------------------|
G|---------------------------------|
D|---------------------------------|
A|5-5-5-5---------5-5-5-5----------|
E|--------2-2-2-2----------2-2-2-2-|

[Refrão]

[Guitarra 1] D  F#m  E

[Guitarra 2]

E|-------------------------------------|
B|-------------------------------------|
G|---14---14---14---16--14-------------|
D|16---16---16---16--------16---14--16-|
A|-------------------------------------|
E|-------------------------------------|

[Solo]

E|-----------------------------------------------------------------------------------------------|
B|-----------------------------------------------------------------------------------------------|
G|-----------6/9--------------------------------6-9----------6/9-11-6-----------------6---9---11-|
D|-7/9--7--------9b11--7----7-9-9-9-7-9-9-9-7-9-----7-9--7-9-----------9--7-7-7h9p7-----7---7----|
A|--------9---------------------------------------------9---------------------------9------------|
E|-----------------------------------------------------------------------------------------------|

E|------------------------------------|
B|-10b12b12b12b12b12r10-7---10--12b14-|
G|------------------------9-----------|
D|------------------------------------|
A|------------------------------------|
E|------------------------------------|

[Terceiro Verso] D  F#m  E

[Refrão]

[Guitarra 1] D  F#m  E

[Guitarra 2]

E|-------------------------------------|
B|-------------------------------------|
G|---14---14---14---16--14-------------|
D|16---16---16---16--------16---14--16-|
A|-------------------------------------|
E|-------------------------------------|

[Final]

E|------------------------|
B|------------------------|
G|------------------------|
D|------------------------|
A|--------------5-4-2-4-0-|
E|2-2-2-2-2-2-2-----------|
reproducciones 1.531
Acordes para:
    Composição: Alex Turner Colaboración y revision:
    • Pedro Lopes
    • Leopoldo Tavares

    0 comentarios

    mostrar más comentarios

    ¿Conseguiste tocar?

    5 tocaron 0 aún no

    ¡Graba un vídeo tocando Stop The World I Wanna Get Off With You y envianoslo!

    00:00 / 00:00
    outros vídeos desta música
    repetir qualidade Automático
    Outros vídeos desta música
    00:00 / 00:00
    Automático
    OK