Cifra Club

Aprenda

American Idiot

Green Day

Tablatura: Versão 3 (guitarra)
Tom: A#
Riff Principal:
E|-------------------------|
B|-------------------------|
G|--------6-6-6-----6------|
D|--6-6-6-6-6-6-4-4-6-6-4--|
A|--6-6-6-4-4-4-4-4-4-6-4--|
E|--4-4-4-------2-2---4-2--|

Refrão:
E|---------------------------------------------------------------------|
B|---------------------------------------------------------------------|
G|-6-6-6-6-6-6-6-6-------------------8-8-8-8-8-8-8-8-------------------|
D|-6-6-6-6-6-6-6-6--6-6-6-6-6-6-6-6--8-8-8-8-8-8-8-8--6-6-6-6-6-6-6-6--|
A|-4-4-4-4-4-4-4-4--6-6-6-6-6-6-6-6--6-6-6-6-6-6-6-6--6-6-6-6-6-6-6-6--|
E|------------------4-4-4-4-4-4-4-4-------------------4-4-4-4-4-4-4-4--|

E|---------------------------------------------------------------|
B|---------------------------------------------------------------|
G|-6-6-6-6-6-6-6-6-------------------8-8-8-8-8-8-8-8-------------|
D|-6-6-6-6-6-6-6-6--6-6-6-6-6-6-6-6--8-8-8-8-8-8-8-8---Bateria---|
A|-4-4-4-4-4-4-4-4--6-6-6-6-6-6-6-6--6-6-6-6-6-6-6-6-------------|
E|------------------4-4-4-4-4-4-4-4------------------------------|

Solo:

E|--------------------------------------------------|
B|--------------------------------------------------|
G|-8/10-10-10-10-10-10-10-10-10-10-10-10-10-10--8-6-|
D|-x/-x--x--x--x--x--x--x--x--x--x--x--x--x--x--x-x-|
A|-6/-8--8--8--8--8--8--8--8--8--8--8--8--8--8--6-4-|
E|--------------------------------------------------|

E|----------------------------------------------|
B|----------------------------------------------|
G|-6/8-8-8-8-8-8-8-10-8-6-5-3-3-3-3-3-3-5-6-5-3-|
D|-x/x-x-x-x-x-x-x--x-x-x-x-x-------------------|
A|-4/6-6-6-6-6-6-6--8-6-4-3-1-------------------|
E|----------------------------------------------|

E|------------------8-----11------9-|
B|-----9-----11---------------------|
G|-8-8---8-8----8-8---8-8----8-8----|
D|----------------------------------|
A|----------------------------------|
E|----------------------------------|

E|--------------------------------------------------|
B|--------------------------------------------------|
G|-8/10-10-10-10-10-10-10-10-10-10-10-10-10-10--8-6-|
D|-x/-x--x--x--x--x--x--x--x--x--x--x--x--x--x--x-x-|
A|-6/-8--8--8--8--8--8--8--8--8--8--8--8--8--8--6-4-|
E|--------------------------------------------------|

E|----------------------------------------------|
B|----------------------------------------------|
G|-6/8-8-8-8-8-8-8-10-8-6-5-3-3-3-3-3-3-5-6-5-3-|
D|-x/x-x-x-x-x-x-x--x-x-x-x-x-------------------|
A|-4/6-6-6-6-6-6-6--8-6-4-3-1-------------------|
E|----------------------------------------------|

E|-----------|
B|---9~~~~~~-|
G|--8--------|
D|-----------|
A|-----------|
E|-----------|

Riff Final:
E|--------------------------|
B|--------------------------|
G|---------6-6-6-------6----|
D|--6-6-6--6-6-6--4-4--6-6--|
A|--6-6-6--4-4-4--4-4--4-6--|
E|--4-4-4---------2-2----4--|
Compositor Billie Joe Armstrong / Green Day
117 reproducciones
    • ½ Tom
    • A
    • Bb
    • B
    • C
    • Db
    • D
    • Eb
    • E
    • F
    • F#
    • G
    • Ab
  • Adicionar à lista

    0 comentarios

    Mostrar mais comentários
    00:00 / 00:00
    outros vídeos desta música
    repetir qualidade Automático
    Outros vídeos desta música
    00:00 / 00:00
    Automático
    Capítulos
    • Início
    • Afinação
    • Tocando a música
    • Acordes da música
    • Tocando Introdução e Primeira Parte
    • Ensinando Introdução
    • Ensinando Primeira Parte
    • Ensinando Refrão
    • Ensinando Solo
    • Encerramento
    OK