Cifra Club

Aprenda

Wake Me Up When September Ends

Green Day

Tablatura: Versão 11 (guitarra)
tono: G
(violão)

|---------------|---------------|---------------|---------------|
|-----3-----3-3-|-----3-----3-3-|-----3-----3-3-|-----3-----3-3-|
|---0-----0-----|---0-----0-----|---0-----0-----|---0-----0-----|
|-5-----5-------|-5-----5-------|-5-----5-------|-5-----5-------|
|---------------|---------------|---------------|---------------|
|---------------|---------------|---------------|---------------|

|---------------|---------------|
|-----3-----3-3-|-----3-----3-3-|
|---0-----0-----|---0-----0-----|
|-5-----5-------|-4-----4-------|
|---------------|---------------|
|---------------|---------------|
 Summer has come and passed

|---------------|---------------|
|-----3-----3-3-|-----3-----3-3-|
|---0-----0-----|---2-----2-----|
|-2-----2-------|-0-----0-------|
|---------------|---------------|
|---------------|---------------|
 The innocent can never last

|-----------------|-----------------|-----------------|-----------------|
|-----5-----5-----|-----4-----4-----|-----3-----3-----|-----3-----3-----|
|-----5-5---5-5-5-|-----5---5-5-5-5-|-----0-0---0-0-0-|-----0-0---0-0-0-|
|---5---5-------5-|---5-----------5-|-------0-------0-|-------0-------0-|
|-3-------3-------|-3-----3---------|---2-------------|---2-------------|
|-----------------|-----------------|-3-------3-------|-3-------3-------|
 Wake me up when September ends


|-----3-----3---|-----3-----3---|
|-----3-----3-3-|-----3-----3-3-|
|---0-----0-----|---0-----0-----|
|-5-----5-------|-4-----4-------|
|---------------|---------------|
|---------------|---------------|
 Like my father's come to pass

|-----3-----3---|-----3-----3---|
|-----3-----3-3-|-----3-----3-3-|
|---0-----0-----|---2-----2-----|
|-2-----2-------|-0-----0-------|
|---------------|---------------|
|---------------|---------------|
 Seven years has gone so fast

|-----------------|-----------------|-----------------|-----------------|
|-----5-----5-----|-----4-----4-----|-----3-----3-----|-----3-------3---|
|-----5-5---5-5-5-|-----5---5-5-5-5-|-----0-0---0-0-0-|-----0-0-----4-4-|
|---5---5-------5-|---5-----------5-|-------0-------0-|-------0-------4-|
|-3-------3-------|-3-----3---------|---2-------------|---2-------2-----|
|-----------------|-----------------|-3-------3-------|-3-------2-------|
 Wake me up when September ends


|-----0-----0-----|-----2-----2-----|
|-----0-----0-0-0-|-----3-----3-3-3-|
|---------------0-|---------4-----4-|
|---------2-------|---4-------------|
|---2-------------|-2-----2---------|
|-0-----0---------|-----------------|
 Here comes the rain again

|-----------------|-----------------|-----------------|
|-----5-----5-----|-----3-----3-----|-----3-------3---|
|-----5-5---5-5-5-|-----0-0---0-0-0-|-----0-0-----4-4-|
|---5---5-------5-|-------0-------0-|-------0-------4-|
|-3-------3-------|---2-------------|---2-------2-----|
|-----------------|-3-------3-------|-3-------2-------|
 Falling from the stars

|-----0-----0-----|-----2-----2-----|
|-----0-----0-0-0-|-----3-----3-3-3-|
|---------------0-|---------4-----4-|
|---------2-------|---4-------------|
|---2-------------|-2-----2---------|
|-0-----0---------|-----------------|
 Drentched in my pain again

|-----------------|-----------------|
|-----5-----5-----|-----7-----7-----|
|-----5-5---5-5-5-|-----7-7---7-7-7-|
|---5---5-------5-|---7---7-------7-|
|-3-------3-------|-5-------5-------|
|-----------------|-----------------|
 Becoming who we are


|-----3-----3---|-----3-----3---|
|-----3-----3-3-|-----3-----3-3-|
|---0-----0-----|---0-----0-----|
|-5-----5-------|-4-----4-------|
|---------------|---------------|
|---------------|---------------|
 As my memory rests

|-----3-----3---|-----3-----3---|
|-----3-----3-3-|-----3-----3-3-|
|---0-----0-----|---2-----2-----|
|-2-----2-------|-0-----0-------|
|---------------|---------------|
|---------------|---------------|
 But never forgets what I lost

|-----------------|-----------------|-----------------|-----------------|
|-----5-----5-----|-----4-----4-----|-----3-----3-----|-----3-----3-----|
|-----5-5---5-5-5-|-----5---5-5-5-5-|-----0-0---0-0-0-|-----0-0---0-0-0-|
|---5---5-------5-|---5-----------5-|-------0-------0-|-------0-------0-|
|-3-------3-------|-3-----3---------|---2-------------|---2-------------|
|-----------------|-----------------|-3-------3-------|-3-------3-------|
 Wake me up when September ends

|---------------|---------------|---------------|---------------|
|-----3-----3-3-|-----3-----3-3-|-----3-----3-3-|-----3-----3-3-|
|---0-----0-----|---0-----0-----|---0-----0-----|---0-----0-----|
|-5-----5-------|-5-----5-------|-5-----5-------|-5-----5-------|
|---------------|---------------|---------------|---------------|
|---------------|---------------|---------------|---------------|

(violão e guitarra)

|---------------|---------------|
|-----3-----3-3-|-----3-----3-3-|
|---0-----0-----|---0-----0-----|
|-5-----5-------|-5-----5-------|
|---------------|---------------|
|---------------|---------------|

|-----3-----3---|-----3-----3---|
|-----3-----3-3-|-----3-----3-3-|
|---0-----0-----|---0-----0-----|
|-5-----5-------|-4-----4-------|
|---------------|---------------|
|---------------|---------------|
 Summer has come and passed

|-----3-----3---|-----3-----3---|
|-----3-----3-3-|-----3-----3-3-|
|---0-----0-----|---2-----2-----|
|-2-----2-------|-0-----0-------|
|---------------|---------------|
|---------------|---------------|
 The innocent can never last

 C           Cm           G
Wake me up when September ends

|-----3-----3---|-----3-----3---|
|-----3-----3-3-|-----3-----3-3-|
|---0-----0-----|---0-----0-----|
|-5-----5-------|-4-----4-------|
|---------------|---------------|
|---------------|---------------|
 Ring out the bells again

|-----3-----3---|-----3-----3---|
|-----3-----3-3-|-----3-----3-3-|
|---0-----0-----|---2-----2-----|
|-2-----2-------|-0-----0-------|
|---------------|---------------|
|---------------|---------------|
 Like we did when spring began

 C           Cm           G   F#m
Wake me up when September ends

Em              Bm
Here comes the rain again
C                  G  F#m
Falling from the stars
Em               Bm
Drentched in my pain again
   D
Becoming who we are

|-----3-----3---|-----3-----3---|
|-----3-----3-3-|-----3-----3-3-|
|---0-----0-----|---0-----0-----|
|-5-----5-------|-4-----4-------|
|---------------|---------------|
|---------------|---------------|
 As my memory rests

|-----3-----3---|-----3-----3---|
|-----3-----3-3-|-----3-----3-3-|
|---0-----0-----|---2-----2-----|
|-2-----2-------|-0-----0-------|
|---------------|---------------|
|---------------|---------------|
 But never forgets what I lost

 C           Cm           G   F#m
Wake me up when September ends

  Em                    Bm                C
|---------7-----7---7-|-----7-----7---7-|-----8-----8---8-|
|-0h5/8-8---8-8---8---|-7-7---7-7---7---|-8-8---8-8---8---|
|---------------------|-----------------|-----------------|
|---------------------|-----------------|-----------------|
|---------------------|-----------------|-----------------|
|---------------------|-----------------|-----------------|

  G            F#m
|---------------|-----------------|
|-8--8--8-8-8-7-|-7-7-7-7-7-7-7-7-|
|-7--7--7-7-7-7-|-7-7-7-7-7-7-7-7-|
|---------------|-----------------|
|---------------|-----------------|
|---------------|-----------------|

  Em                  Bm                C
|-------7-----7---7-|-----7-----7---7-|-----8-----8---8-|
|-7/8-8---8-8---8---|-7-7---7-7---7---|-8-8---8-8---8---|
|-------------------|-----------------|-----------------|
|-------------------|-----------------|-----------------|
|-------------------|-----------------|-----------------|
|-------------------|-----------------|-----------------|

  D4                              D
|-------------------------------|----------------------------------|
|-8--8--8-8-8-8-8-8-8-8-8-8-8-8-|-7--7--7-7-7-7-7-7-7-7-7-7-7-7----|
|-7--7--7-7-7-7-7-7-7-7-7-7-7-7-|-7--7--7-7-7-7-7-7-7-7-7-7-7-7----|
|-------------------------------|----------------------------------|
|-------------------------------|----------------------------------|
|------------------------------------------------------------------|

  D4                       D
|------------------------|------------------------|------------|
|-8--8--8--8--8--8--8--8-|-7--7--7--7--7--7--7--7-|-7/8--------|
|-7--7--7--7--7--7--7--7-|-7--7--7--7--7--7--7--7-|------------|
|------------------------|------------------------|------------|
|------------------------|------------------------|------------|
|------------------------|------------------------|------------|

(violão)

|---------------|---------------|---------------|---------------|
|-----3-----3-3-|-----3-----3-3-|-----3-----3-3-|-----3-----3-3-|
|---0-----0-----|---0-----0-----|---0-----0-----|---0-----0-----|
|-5-----5-------|-5-----5-------|-5-----5-------|-5-----5-------|
|---------------|---------------|---------------|---------------|
|---------------|---------------|---------------|---------------|

|-----3-----3---|-----3-----3---|
|-----3-----3-3-|-----3-----3-3-|
|---0-----0-----|---0-----0-----|
|-5-----5-------|-4-----4-------|
|---------------|---------------|
|---------------|---------------|
 Summer has come and passed

|-----3-----3---|-----3-----3---|
|-----3-----3-3-|-----3-----3-3-|
|---0-----0-----|---2-----2-----|
|-2-----2-------|-0-----0-------|
|---------------|---------------|
|---------------|---------------|
 The innocent can never last

(violão e guitarra):
 C           Cm           G
Wake me up when September ends

|-----3-----3---|-----3-----3---|
|-----3-----3-3-|-----3-----3-3-|
|---0-----0-----|---0-----0-----|
|-5-----5-------|-4-----4-------|
|---------------|---------------|
|---------------|---------------|
 Like my father's come to pass

|-----3-----3---|-----3-----3---|
|-----3-----3-3-|-----3-----3-3-|
|---0-----0-----|---2-----2-----|
|-2-----2-------|-0-----0-------|
|---------------|---------------|
|---------------|---------------|
 Twenty years has gone so fast

 C           Cm           G
Wake me up when September ends
 C           Cm           G
Wake me up when September ends
 C           Cm           G
Wake me up when September ends
Composição de Billie Joe Armstrong / Tré Cool / Mike Dirnt
Colaboración y revision:
  • qwerty0123
43 reproducciones
  • Simplificar cifra
    • ½ Tono
    • A
    • Bb
    • B
    • C
    • Db
    • D
    • Eb
    • E
    • F
    • F#
    • G
    • Ab
  • Adicionar à lista

    0 comentarios

    Ver todos os comentários

    ¿Conseguiste tocar?

    0 Tocaram 0 Ainda não

    Grave um vídeo tocando Wake Me Up When September Ends e nos envie!

    00:00 / 00:00
    outros vídeos desta música
    repetir qualidade Automático
    Outros vídeos desta música
    00:00 / 00:00
    Automático
    OK