Cifra Club

Aprenda

Wake Me Up When September Ends

Green Day

Tablatura: Versão 8 (guitarra)
tono: G
Introdução:
e|-----------------|----------------3|-----------------|----------------3|
B|-------3-------3-|-------3-------3-|-------3-------3-|-------3-------3-|
G|----0-------0----|----0-------0----|----0-------0----|----0-------0----|
D|-5-------5-------|-5-------5-------|-5-------5-------|-5-------5-------|
A|-----------------|-----------------|-----------------|-----------------|
E|-----------------|-----------------|-----------------|-----------------|

e|-----------------|----------------3|-----------------|-----------------|
B|-------3-------3-|-------3-------3-|-------3-------3-|-------3-------3-|
G|----0-------0----|----0-------0----|----0-------0----|----0-------0----|
D|-5-------5-------|-4-------4-------|-2-------2-------|-0-------0-------|
A|-----------------|-----------------|-----------------|-----------------|
E|-----------------|-----------------|-----------------|-----------------|
  Summer has        come and passed  the innocent can   never last

C          Cm             G
Wake me up when September ends

e|-----------------|-----------------|-----------------|-----------------|
B|-------3-------3-|-------3-------3-|-------3-------3-|-------3-------3-|
G|----0-------0----|----0-------0----|----0-------0----|----0-------0----|
D|-5-------5-------|-5-------5-------|-5-------5-------|-5-------5-------|
A|-----------------|-----------------|-----------------|-----------------|
E|-----------------|-----------------|-----------------|-----------------| 
  Like my father's  come to pass     twenty years has  gone so fast

C          Cm             G
Wake me up when September ends

Em              Bm         C                G     F#
Here comes the rain again falling from the stars

Em              Bm         C                D    D9 D 
Drenched in my pain again becoming who we are

e|-----------------|-----------------|-----------------|-----------------|
B|-------3-------3-|-------3-------3-|-------3-------3-|-------3-------3-|
G|----0-------0----|----0-------0----|----0-------0----|----0-------0----|
D|-5-------5-------|-4-------4-------|-2-------2-------|-0-------0-------|
A|-----------------|-----------------|-----------------|-----------------|
E|-----------------|-----------------|-----------------|-----------------|
  As my memo*********ry rests        but never forgets what I lost       *Pronloga a voz até o "ry"

C          Cm             G
Wake me up when September ends

e|-----------------|----------------3|-----------------|----------------3|
B|-------3-------3-|-------3-------3-|-------3-------3-|-------3-------3-|
G|----0-------0----|----0-------0----|----0-------0----|----0-------0----|
D|-5-------5-------|-5-------5-------|-5-------5-------|-5-------5-------|
A|-----------------|-----------------|-----------------|-----------------|
E|-----------------|-----------------|-----------------|-----------------|

e|-----------------|----------------3|-----------------|-----------------|
B|-------3-------3-|-------3-------3-|-------3-------3-|-------3-------3-|
G|----0-------0----|----0-------0----|----0-------0----|----0-------0----|
D|-5-------5-------|-4-------4-------|-2-------2-------|-0-------0-------|
A|-----------------|-----------------|-----------------|-----------------|
E|-----------------|-----------------|-----------------|-----------------|

e|------------------|-------------------|-------------------|------------------------------|
B|------------------|-----2---2---------|-------------------|------------------------------|
G|-----5-5----------|---3---3-----------|-------------------|---------4-4--5-5-------------|
D|-----5-5----------|---3---3-----------|----3-3--3-3-------|----2-2--4-4--5-5-------------|
A|-----3-3----------|---5---5-----------|----3-3--3-3-------|----2-2--2-2--3-3-------------|
E|------------------|-------------------|----5-5--2-2-------|----0-0-----------------------|

e|-----------------|-----------------|-----------------|-----------------|
B|-------3-------3-|-------3-------3-|-------3-------3-|-------3-------3-|
G|----0-------0----|----0-------0----|----0-------0----|----0-------0----|
D|-5-------5-------|-4-------4-------|-2-------2-------|-0-------0-------|
A|-----------------|-----------------|-----------------|-----------------|
E|-----------------|-----------------|-----------------|-----------------|
  Summer has        come and passed  the innocent can   never last

C          Cm             G
Wake me up when September ends

e|-----------------|-----------------|-----------------|-----------------|
B|-------3-------3-|-------3-------3-|-------3-------3-|-------3-------3-|
G|----0-------0----|----0-------0----|----0-------0----|----0-------0----|
D|-5-------5-------|-4-------4-------|-2-------2-------|-0-------0-------|
A|-----------------|-----------------|-----------------|-----------------|
E|-----------------|-----------------|-----------------|-----------------|
  Ring out the       bells again      like we did when   spring began  

C          Cm             G
Wake me up when September ends

Em              Bm         C                G     F#
Here comes the rain again falling from the stars

Em              Bm         C                D    D9 D 
Drenched in my pain again becoming who we are

e|-----------------|-----------------|-----------------|-----------------|
B|-------3-------3-|-------3-------3-|-------3-------3-|-------3-------3-|
G|----0-------0----|----0-------0----|----0-------0----|----0-------0----|
D|-5-------5-------|-4-------4-------|-2-------2-------|-0-------0-------|
A|-----------------|-----------------|-----------------|-----------------|
E|-----------------|-----------------|-----------------|-----------------|
  As my memo********ry rests,        but never forgets what I lost              *Pronloga a voz até o "ry"

C          Cm             G
Wake me up when September ends

SOLO: 

e|-6/7---7-----7---7---------7-----7---7--------8-----8---8--------10-----10---10-|
B|-7/8-8---8-8---8-------7-7---7-7---7------8-8---8-8---8------8-8----8-8----8----|
G|--------------------------------------------------------------------------------|
D|--------------------------------------------------------------------------------|
A|--------------------------------------------------------------------------------|
E|--------------------------------------------------------------------------------|

e|-----7-----7---7---------7-----7---7--------8-----8---8-|
B|-8-8---8-8---8-------7-7---7-7---7------8-8---8-8---8---|
G|--------------------------------------------------------|
D|--------------------------------------------------------|
A|--------------------------------------------------------|
E|--------------------------------------------------------|

e|-10-10-10-10-10-10-10-10--10-10-10-10-10-10-10-10-|
B|-8--8--8--8--8--8--8--8---10-10-10-10-10-10-10-10-|
G|--------------------------------------------------| 2x
D|--------------------------------------------------|
A|--------------------------------------------------|
E|--------------------------------------------------|
 
e|-10--|-----------------|-----------------|-----------------|-----------------|
B|-8---|-------3-------3-|-------3-------3-|-------3-------3-|-------3-------3-|
G|-----|----0-------0----|----0-------0----|----0-------0----|----0-------0----|
D|-----|-5-------5-------|-5-------5-------|-5-------5-------|-5-------5-------|
A|-----|-----------------|-----------------|-----------------|-----------------|
E|-----|-----------------|-----------------|-----------------|-----------------|
                                                                         Fim de Solo

e|-----------------|----------------3|-----------------|----------------3|
B|-------3-------3-|-------3-------3-|-------3-------3-|-------3-------3-|
G|----0-------0----|----0-------0----|----0-------0----|----0-------0----|
D|-5-------5-------|-5-------5-------|-5-------5-------|-5-------5-------|
A|-----------------|-----------------|-----------------|-----------------|
E|-----------------|-----------------|-----------------|-----------------|

e|-----------------|----------------3|-----------------|-----------------|
B|-------3-------3-|-------3-------3-|-------3-------3-|-------3-------3-|
G|----0-------0----|----0-------0----|----0-------0----|----0-------0----|
D|-5-------5-------|-4-------4-------|-2-------2-------|-0-------0-------|
A|-----------------|-----------------|-----------------|-----------------|
E|-----------------|-----------------|-----------------|-----------------|
  Summer has        come and passed  the innocent can   never last

C          Cm             G
Wake me up when September ends

e|-----------------|-----------------|-----------------|-----------------|
B|-------3-------3-|-------3-------3-|-------3-------3-|-------3-------3-|
G|----0-------0----|----0-------0----|----0-------0----|----0-------0----|
D|-5-------5-------|-5-------5-------|-5-------5-------|-5-------5-------|
A|-----------------|-----------------|-----------------|-----------------|
E|-----------------|-----------------|-----------------|-----------------| 
  Like my father's  come to pass     twenty years has  gone so fast


C          Cm             G
Wake me up when September ends  3x(Repete)

Finalzinho: 
e|-----10-----10--------10-----10--------10-----10-------10----| (Já acabando a música)
B|-8-8----8-8-------8-8----8-8-------8-8----8-8-------8------8-|
G|-------------------------------------------------------------|
D|-------------------------------------------------------------|
A|-------------------------------------------------------------|
E|-------------------------------------------------------------|
Composição de Billie Joe Armstrong / Tré Cool / Mike Dirnt
Colaboración y revision:
  • Pedro Reis
97 reproducciones
  • Simplificar cifra
    • ½ Tono
    • A
    • Bb
    • B
    • C
    • Db
    • D
    • Eb
    • E
    • F
    • F#
    • G
    • Ab
  • Adicionar à lista

    0 comentarios

    Ver todos os comentários

    ¿Conseguiste tocar?

    0 Tocaram 0 Ainda não

    Grave um vídeo tocando Wake Me Up When September Ends e nos envie!

    00:00 / 00:00
    outros vídeos desta música
    repetir qualidade Automático
    Outros vídeos desta música
    00:00 / 00:00
    Automático
    Capítulos
    • Início
    • Dicas iniciais
    • Tocando trecho da música
    • Dicas e acordes da intro e primeira parte
    • Tocando introdução e primeira parte
    • Ensinando ritmo da intro e primeira parte
    • Acordes da segunda parte
    • Tocando segunda parte
    • Ensinando ritmo da segunda parte
    • Dicas
    • Tocando terceira parte
    • Ensinando ritmo da terceira parte
    • Encerramento
    • Extras
    OK