Cifra Club

Aprenda

Since I Don't Have You

Guns N' Roses

Tab de batería: Principal
Guitarra Solo:
e |-------------------------------------|--------------------------|
B |-------------------------------------|--------------------------|
G |-----19^-----------------------------|-----19^^-----------------|
D |---------21b--19-21--19h21p19p17\15~-|-----------21b--19-21-----|
A |--17---------------------------------|-17-----------------------|
E |-------------------------------------|--------------------------|

e |-------------------|--------------------------------------------|
B |-------------------|---19^^--19--17h19p17\15~-------------------|
G |-------------------|---------------------------17--15--19^^-----|
D |--19h21p19p17\15~--|--------------------------------------------|
A |-------------------|--------------------------------------------|
E |-------------------|--------------------------------------------|

e |-------------------|--------------------------------------------|
B |-------------------|--------------------------------------------|
G |--17h19p17p15\13~--|--------------------------------------------|
D |-------------------|----15--h17p15---15--17/19--21-21-21--------|
A |-------------------|--------------------------------------------|
E |-------------------|--------------------------------------------|

e |---------------------------------------------------------------|
B |---------------------------------------------------------------|
G |---------------------------------------------------------------|
D |---19-19-19---17b--15------------------------------------------|
A |-----------------------19--17----------------------------------|
E |---------------------------------------------------------------|


Tom:G
Intr:G,C,D,G,C,Cm,G,Cm,Am,D
     (G,Em,Am,Cm,G,Em,G,C,Am,D)

 G             Cm        D
I don't have plans and schemes,
     G            Cm       D
And I don't have hopes and dreams.
 G             Cm          
I, I, I don't have anything,
 Am            D
Since I don't have you.
 G        Cm          D      
And I don't have fond desires,
     G       Cm         D
And I don't have happy hours.
 G       Cm
I don't have anything,
 Am         D
Since I don't have you.               
Happiness and I guess
 Am                G
I never will again.
 Am                       G
When you walked out on me,
In walked old misery,
 Am                        D
And she's been here since then.

SOLO: 

                   G   Cm Am D
(spoken) Yeah, we're fucked!
 G        Cm         D
I don't have love to share,
 G            Cm         D
And I don't have one who cares.
 G       Cm 
I don't have anything,
 Am            D
Since I don't have you.
 (G,Em,Am,D)
You, you, you, oh, oh!
You, you, you, oh, oh!
You, you, you, oh, oh!
You, you, you, oh yeah!




Contribuição: Diego S. (diego_mafra@hotmail.com)
Composição de Joe Rock / Lennie Martin
542 reproducciones

0 comentarios

Ver todos os comentários

¿Conseguiste tocar?

0 Tocaram 0 Ainda não

Grave um vídeo tocando Since I Don't Have You e nos envie!

00:00 / 00:00
outros vídeos desta música
repetir qualidade Automático
Outros vídeos desta música
00:00 / 00:00
Automático
OK