Cifra Club

Hey Joe (Live)

Jimi Hendrix

Tablatura: Principal (guitarra)
Já pensou em usar uma coleção de roupas do Cifra Club? Responda as perguntas abaixo e nos ajude nessa missão! →
tono: G
Não esta 100% correto, mas tenho certeza de que é mais ou menos isso.

Início(1:08):
         C           D          E           E   E(#7/9)
E-------xxx---------xxx---------x-----------x-------x--------------------
B-------xxx---------xxx---------x-----------x-------8--------------------
G-------555---------777---------x-----------x-------7----0-2-0-----------
D-------555---------777---------2~----0--0--2-------6----------2-0-2-----
A-5^-3--333------5--555---------2~--2--2----2-------7----------------3-3-
E-------xxx--3-3----xxx--5-5-3--0~----------0-------0--------------------

                                          E  E(#7/9)
E-----------------------------------------x--x--------3---x--------------
B-----------------------------------------x--8-----3---5--x--------------
G-----------------------------------------x--7---4--4-----x--------------
D-----------------------------------0--0--2--6------------2-----0-2-0-2--
A---------------5-5---------------2--2----2--7------------2--0-2---------
E-0-0-1-1-2-2-3-----2-2-3-3-4-4-5---------0--0------------0--------------

              E                           C G   D A   E        E(#7/9)
E-0-0-0-0-----x--------------------------------------------------x-------
B-3/5-3-0-----x--------------------3---3-------------------------8-------
G---------2-0-x-----------------2h4-2h4---------------------0----7-------
D-------------2---0-0-0-0-0-0-0---------------------------0--2---6-------
A-------------2---5-5-5-4-4-2-2-------------------------2--2-----7--0-2--
E-------------0--------------------------------------------------0-------

           E   C G   D A   E                            C G   D A   E
E---------------------------------3--5-4--5-4---7-7-4--------------------
B------------------------------3---5----5-----5-------5------------------
G-----0----------------------4--4----------------------------------------
D-0-2--2-0---------------------------------------------------------------
A------------------------------------------------------------------------
E------------------------------------------------------------------------

            C G   D A   E          E(#7/9)  C G   D A   E             E
E-------------------------------------x---------------------7-5p4p2------
B-------------------------------------8-------------------5---------5----
G-----2p1-----------------------0-----7----------------------------------
D---------2------------------0---2----6----------------------------------
A-0h2----------------------2--2-------7----------------------------------
E-------------------------------------0----------------------------------

  C G   D A   E      C G   D A   E      C G   D A   E
E------------------------------------------------------------------------
B------------------------------------------------------------------------
G------------------------------------------------------------------------
D------------------------------------------------------------------------
A------------------------------------------------------------------------
E------------------------------------------------------------------------


Solo(3:20):

E-12-12p10----------------10-15-12h14--12-10-12-10h12p10--9-9----9-------
B----------12-10----10-12-------------------------------------12---9-----
G----------------12--------------------------------------------------9---
D---------------------------------------------------------------------11-
A------------------------------------------------------------------------
E------------------------------------------------------------------------

E------------------------------------------17-15-17-15-17-15-12-10-------
B------------------12-12--14-12-15---------------------------------12-14-
G-------9-7---9-11-----------------12-9-12-------------------------------
D-9-7-6-----9------------------------------------------------------------
A------------------------------------------------------------------------
E------------------------------------------------------------------------

E----------12-10h12-10h12----18-16-14-11-14-11---------12-12-10----------
B--------9------------------------------------------------------12-10----
G-9-9-12--------------------------------------------------------------12-
D----------------------------------------------------2-------------------
A------------------------------------------------2-5---------------------
E----------------------------------------------3-------------------------

E------------------------------------------------------------------------
B------------------------------------------------------------------------
G-9----------------------------------------------------------------------
D---12-9-----------------------------------------------------------------
A--------12-10----------3---------2-3-4-5--------4-5-6-7-----------------
E--------------12-10-12---0-1-2-3---------2-3-4-5---------------Gábri----
398 reproducciones
    • ½ Tono
    • A
    • Bb
    • B
    • C
    • Db
    • D
    • Eb
    • E
    • F
    • F#
    • G
    • Ab
  • Adicionar à lista

    0 comentarios

    Ver todos os comentários

    ¿Conseguiste tocar?

    1 Tocaram 0 Ainda não

    Grave um vídeo tocando Hey Joe (Live) e nos envie!

    00:00 / 00:00
    outros vídeos desta música
    repetir qualidade Automático
    Outros vídeos desta música
    00:00 / 00:00
    Automático
    OK