Cifra Club

Déjenme si estoy llorando

El Gran Silencio

Cifrado: Versão 4 (guitarra y guitarra eléctrica)
Selo Cifra Club: esta cifra foi revisada para atender aos critérios oficiais da nossa Equipe de Qualidade.
tono: A
E|---------------------|
B|-5---7---------------|
G|---------7-----------|
D|-------------7-------|
A|---------------------|
E|---------------------|

E|--------------------------|
B|----10-10-10--------------|
G|-------------13-11-9-9-11-|
D|--------------------------|
A|--------------------------|
E|--------------------------|

E|-------------------------|
B|-------------------------|
G|-11-11-11-9--------11-11-|
D|------------11-12--------|
A|-------------------------|
E|-------------------------|

E|---------------------------------------|
B|---------------------------------------|
G|-11-11-11-9--------11-11-11------------|
D|------------11-12----------------------|
A|---------------------------------------|
E|---------------------------------------|

E|-----------------------------------------------------------------------|
B|-----------------------------------------------------------------------|
G|---------------11-11-9--------------11-11-9----------------------------|
D|--9-11-12-9-12---------11--------11----------9------------9-9----------|
A|--------------------------12--12---------------11---11-12------12-11-12|
E|-----------------------------------------------------------------------|



Espero les guste
Mitzi te amo
Saludos a la banda rockera de México
Atte: Jonathan
00:00 / 00:00
Otros videos de esta canción
Repetir
Otros videos de esta canción
2 exhibiciones
    • ½ Tono
    • A
    • Bb
    • B
    • C
    • Db
    • D
    • Eb
    • E
    • F
    • F#
    • G
    • Ab
  • Agregar a la lista

Afinación de cifrado

Afinador online

    00:00 / 00:00
    OK