Cifra Club

Aprenda

Wake Me Up When September Ends

Green Day

Tablatura: Mais-parecida-possivel-editada (guitarra)
tono: G
Intro:
E|-----------------|-----------------|-----------------|-----------------|
B|-------3-------3-|-------3-------3-|-------3-------3-|-------3-------3-|
G|----*-------*----|----*-------*----|----*-------*----|----*-------*----|
D|-55------55------|-55------55------|-55------55------|-55------55------|
A|-----------------|-----------------|-----------------|-----------------|
E|-----------------|-----------------|-----------------|-----------------|

E|-----------------|-----------------|-----------------|-----------------|
B|-------3-------3-|-------3-------3-|-------3-------3-|-------2-------2-|
G|----*-------*----|----*-------*----|----*-------*----|----*-------*----|
D|-55-------55-----|-44-------44-----|-55-------55-----|-33-------33-----|
A|-----------------|-----------------|-----------------|-----------------|
E|-----------------|-----------------|-----------------|-----------------|

  Summer has        come and passed  the innocent can   never last
C          Cm             G
Wake me up when September ends

E|-----------------|-----------------|-----------------|-----------------|
B|-------3-------3-|-------3-------3-|-------3-------3-|-------3-------3-|
G|----*-------*----|----*-------*----|----*-------*----|----*-------*----|
D|-55------55------|-55------55------|-55------55------|-55------55------|
A|-----------------|-----------------|-----------------|-----------------|
E|-----------------|-----------------|-----------------|-----------------|

B
  Like my father's  come to pass     twenty years has  gone so fast
C          Cm             G
Wake me up when September ends
Em              Bm         C                G     F#
Here comes the rain again falling from the stars
Em              Bm         C                D    D9 D
Drenched in my pain again becoming who we are

E|-----------------|-----------------|-----------------|-----------------|
B|-------3-------3-|-------3-------3-|-------3-------3-|-------2-------2-|
G|----*-------*----|----*-------*----|----*-------*----|----*-------*----|
D|-55-------55-----|-44-------44-----|-55-------55-----|-33-------33-----|
A|-----------------|-----------------|-----------------|-----------------|
E|-----------------|-----------------|-----------------|-----------------|

  As my memo---------ry rests        but never forgets what I lost       -Pronloga a voz até o "ry"
C          Cm             G
Wake me up when September ends

E|-----------------|-----------------|-----------------|-----------------|
B|-------3-------3-|-------3-------3-|-------3-------3-|-------3-------3-|
G|----*-------*----|----*-------*----|----*-------*----|----*-------*----|
D|-55------55------|-55------55------|-55------55------|-55------55------|
A|-----------------|-----------------|-----------------|-----------------|
E|-----------------|-----------------|-----------------|-----------------|

B
E

E|-----------------|-----------------|-----------------|-----------------|
B|-------3-------3-|-------3-------3-|-------3-------3-|-------2-------2-|
G|----*-------*----|----*-------*----|----*-------*----|----*-------*----|
D|-55-------55-----|-44-------44-----|-55-------55-----|-33-------33-----|
A|-----------------|-----------------|-----------------|-----------------|
E|-----------------|-----------------|-----------------|-----------------|

E|------------------|-------------------|-------------------|------------------------------|
B|------------------|-------------------|-------------------|------------------------------|
G|-----5-5----------|---5---5-----------|-------------------|---------4-4--5-5-------------|
D|-----5-5----------|---5---5-----------|----5-5--5-5-------|----2-2--4-4--5-5-------------|
A|-----3-3----------|---3---3-----------|----5-5--5-5-------|----2-2--2-2--3-3-------------|
E|------------------|-------------------|----3-3--3-3-------|----0-0-----------------------|

E|-----------------|-----------------|-----------------|-----------------|
B|-------3-------3-|-------3-------3-|-------3-------3-|-------2-------2-|
G|----*-------*----|----*-------*----|----*-------*----|----*-------*----|
D|-55-------55-----|-44-------44-----|-55-------55-----|-33-------33-----|
A|-----------------|-----------------|-----------------|-----------------|
E|-----------------|-----------------|-----------------|-----------------|

  Summer has        come and passed  the innocent can   never last
C          Cm             G
Wake me up when September ends

E|-----------------|-----------------|-----------------|-----------------|
B|-------3-------3-|-------3-------3-|-------3-------3-|-------2-------2-|
G|----*-------*----|----*-------*----|----*-------*----|----*-------*----|
D|-55-------55-----|-44-------44-----|-55-------55-----|-33-------33-----|
A|-----------------|-----------------|-----------------|-----------------|
E|-----------------|-----------------|-----------------|-----------------|

  Ring out the       bells again      like we did when   spring began

C          Cm             G
Wake me up when September ends
Em              Bm         C                G     F#
Here comes the rain again falling from the stars
Em              Bm         C                D    D9  D
Drenched in my pain again becoming who we are

E|-----------------|-----------------|-----------------|-----------------|
B|-------3-------3-|-------3-------3-|-------3-------3-|-------2-------2-|
G|----*-------*----|----*-------*----|----*-------*----|----*-------*----|
D|-55-------55-----|-44-------44-----|-55-------55-----|-33-------33-----|
A|-----------------|-----------------|-----------------|-----------------|
E|-----------------|-----------------|-----------------|-----------------|

  As my memo********ry rests,        but never forgets what I lost              *Pronloga a voz até o "ry"
C          Cm             G
Wake me up when September ends

Solo:
E|-6/7---7-----7---7---------7-----7---7--------8-----8---8--------10-----10---10-|
B|-7/8-8---8-8---8-------7-7---7-7---7------8-8---8-8---8------8-8----8-8----8----|
G|--------------------------------------------------------------------------------|
D|--------------------------------------------------------------------------------|
A|--------------------------------------------------------------------------------|
E|--------------------------------------------------------------------------------|

E|-----7-----7---7---------7-----7---7--------8-----8---8-|
B|-8-8---8-8---8-------7-7---7-7---7------8-8---8-8---8---|
G|--------------------------------------------------------|
D|--------------------------------------------------------|
A|--------------------------------------------------------|
E|--------------------------------------------------------|

E|-10-10-10-10-10-10-10-10--10-10-10-10-10-10-10-10-|
B|-8--8--8--8--8--8--8--8---10-10-10-10-10-10-10-10-|
G|--------------------------------------------------|   (2x)
D|--------------------------------------------------|
A|--------------------------------------------------|
E|--------------------------------------------------|

E|-----------------|-----------------|-----------------|-----------------|
B|-------3-------3-|-------3-------3-|-------3-------3-|-------3-------3-|
G|----*-------*----|----*-------*----|----*-------*----|----*-------*----|
D|-55------55------|-55------55------|-55------55------|-55------55------|
A|-----------------|-----------------|-----------------|-----------------|
E|-----------------|-----------------|-----------------|-----------------|

E|-----------------|-----------------|-----------------|-----------------|
B|-------3-------3-|-------3-------3-|-------3-------3-|-------3-------3-|
G|----*-------*----|----*-------*----|----*-------*----|----*-------*----|
D|-55------55------|-55------55------|-55------55------|-55------55------|
A|-----------------|-----------------|-----------------|-----------------|
E|-----------------|-----------------|-----------------|-----------------|

E|-----------------|-----------------|-----------------|-----------------|
B|-------3-------3-|-------3-------3-|-------3-------3-|-------2-------2-|
G|----*-------*----|----*-------*----|----*-------*----|----*-------*----|
D|-55-------55-----|-44-------44-----|-55-------55-----|-33-------33-----|
A|-----------------|-----------------|-----------------|-----------------|
E|-----------------|-----------------|-----------------|-----------------|

  Summer has        come and passed  the innocent can   never last
C          Cm             G
Wake me up when September ends

E|-----------------|-----------------|-----------------|-----------------|
B|-------3-------3-|-------3-------3-|-------3-------3-|-------3-------3-|
G|----*-------*----|----*-------*----|----*-------*----|----*-------*----|
D|-55------55------|-55------55------|-55------55------|-55------55------|
A|-----------------|-----------------|-----------------|-----------------|
E|-----------------|-----------------|-----------------|-----------------|

  Like my father's  come to pass     twenty years has  gone so fast
C          Cm             G
Wake me up when September ends  3x(Repete)

Finalzinho:
E|-----10-----10--------10-----10--------10-----10-------10------| (Já acabando a música)
B|-8-8----8-8-------8-8----8-8-------8-8----8-8-------8------8---|
G|---------------------------------------------------------------|
D|---------------------------------------------------------------|
A|---------------------------------------------------------------|
E|---------------------------------------------------------------|
Composição de Billie Joe Armstrong / Tré Cool / Mike Dirnt
Colaboración y revision:
  • ~¢ésär~
  • lenon silva
405 reproducciones
  • Simplificar cifra
    • ½ Tono
    • A
    • Bb
    • B
    • C
    • Db
    • D
    • Eb
    • E
    • F
    • F#
    • G
    • Ab
  • Adicionar à lista

    0 comentarios

    Ver todos os comentários

    ¿Conseguiste tocar?

    12 Tocaram 1 Ainda não

    Grave um vídeo tocando Wake Me Up When September Ends e nos envie!

    00:00 / 00:00
    outros vídeos desta música
    repetir qualidade Automático
    Outros vídeos desta música
    00:00 / 00:00
    Automático
    OK