Cifra Club

Yesterday

The Beatles

Tablatura: Versão 11 (guitarra)
Tono: C
E|----------------------0-1--0------------------------------------
B|----------------0-2-3--------3-3--------------------------------
G|--0-----------2-------------------------------------------------
D|----3-3---------------------------------------------------------
A|----------------------------------------------------------------
E|----------------------------------------------------------------

E|----------------------------------------------------------------
B|---3-3--1-------------------------------------------------------
G|----------3-2-0--3---2-2-----0------2-0-----------2-2-----------
D|---------------------------------3----------0--3----------------
A|----------------------------------------------------------------
E|----------------------------------------------------------------

E|----------------------0-1--0------------------------------------
B|----------------0-2-3--------3-3--------------------------------
G|--0-----------2-------------------------------------------------
D|----3-3---------------------------------------------------------
A|----------------------------------------------------------------
E|----------------------------------------------------------------

E|----------------------------------------------------------------
B|---3-3--1-------------------------------------------------------
G|----------3-2-0--3---2-2-----0------2-0-----------2-2-----------
D|---------------------------------3----------0--3----------------
A|----------------------------------------------------------------
E|----------------------------------------------------------------

E|------------0--1--0----0----------------------------------------
B|---------3----------3-----3-1---3-------------------------------
G|--2---2-----------------------------2---------------------------
D|----------------------------------------------------------------
A|----------------------------------------------------------------
E|----------------------------------------------------------------

E|------------0--1--1--0----0--------0--1-------------------------
B|---------3-------------3------3-1--------1----------------------
G|--2-2---------------------------------------3--2----------------
D|----------------------------------------------------------------
A|----------------------------------------------------------------
E|----------------------------------------------------------------

E|----------------------0-1--0------------------------------------
B|----------------0-2-3--------3-3--------------------------------
G|--0-----------2-------------------------------------------------
D|----3-3---------------------------------------------------------
A|----------------------------------------------------------------
E|----------------------------------------------------------------

E|----------------------------------------------------------------
B|---3-3--1-------------------------------------------------------
G|----------3-2-0--3---2-2-----0------2-0-----------2-2-----------
D|---------------------------------3----------0--3----------------
A|----------------------------------------------------------------
E|----------------------------------------------------------------

E|----------------------------------------------------------------
B|----------------------------------------------------------------
G|------2--0-------2-2--------------------------------------------
D|---3--------0--3------------------------------------------------
A|----------------------------------------------------------------
E|----------------------------------------------------------------
reproducciones 162
Acordes para:
    Compositor: Paul McCartney Colaboración y revision:
    • Agustin Devera

    0 comentarios

    mostrar más comentarios
    00:00 / 00:00
    outros vídeos desta música
    repetir qualidade Automático
    Outros vídeos desta música
    00:00 / 00:00
    Automático
    OK