Cifra Club

TNT

AC/DC

Cifrado: Principal (guitarra y guitarra eléctrica)
tono: D
riff 1:
E|-------------------------------|
B|-------------------------------|
G|-------------------------------|
D|-------------------------------|
A|--2~--5-7~---7-5-2-------------|       ou   E5/G5/A5/
E|--0~--3-5~---5-3-0-------------|

riff 2:

E|-----------------x--x--x-------|
B|-----------------x--x--x-------|
G|-----------------x--x--x-------| (4x)    ou  G5/A5/G5/E5
D|-----------------x--x--x-------|
A|-----5--7--5--2~--x--x--x------|
E|-----3--5--3--0~--x--x--x------|

E|-------------------------------|
B|-------------------------------|
G|-------------------------------|
D|-------------------------------|         ou A5
A|-------7-----------------------|
E|-------5-----------------------|


Letra da Musica :

riff 1: (15x)
Hoy

See me ride out of the sunset
On your color TV screen
Out for all that I can get
If you know what I mean

Women to the left of me
And women to the right
Ain't got no gun
Ain't got no knife
Don't you start no fight

(riff 2):
'Cause I'm TNT, I'm dynamite
TNT, and I'll win the fight
TNT, I'm a power load
TNT, watch me explode

(riff 1):
I'm dirty, mean and mighty unclean
I'm a wanted man
Public enemy number one
Understand?

So lock up your daughter
Lock up your wife
Lock up your back door
Run for your life

The man is back in town
Don't you mess me 'round

        A5  G5   E5
Cause I'm TNT, I'm dynamite
 A5 G5 E5        E5
TNT and I'll win the fight
A5 G5  E5     E5
TNT, I'm a power load
A5 G5 E5  G5 A5
TNT, watch me explode

(4x)
TNT, hey, hey, hey

TNT, hey
I'm dynamite (Hey, hey)
TNT, hey
And I'll win the fight (Hey, hey)
TNT, hey
I'm a power load (Hey, hey)
TNT
Watch me explode (REPITE LO MISMO QUE EL ESTRIBILLO)
Composición de Emanuel Manu
Colaboración y revisión:
9.614 vistas
    • ½ Tono
    • A
    • Bb
    • B
    • C
    • Db
    • D
    • Eb
    • E
    • F
    • F#
    • G
    • Ab
  • Agregar a la lista

    0 comentarios

    Ver todos los comentarios

    ¿Lograste tocar?

    25 Tocaron 1 Aún no

    ¡Graba un video tocando TNT y envíanoslo!

    00:00 / 00:00
    Otros videos de esta canción
    Repetir Calidad Automático
    Otros videos de esta canción
    00:00 / 00:00
    Automático
    OK