Cifra Club

Autumn Leaves Solo

Eric Clapton

Tablatura: Principal (guitarra)
Tom: G
Solo 1(1:39)

E|-----------------------------------------------------|
B|-----------------------------------------------------|
G|---------12~-------------11~-------------9~----------|
D|-9-11-12------------9-11---------------9-------------|
A|-----------------12-------------/10-12---------------|
E|-----------------------------------------------------|

E|-----------------------------------------------------|
B|-----------------------------------------------------|
G|--------------------------------------------12~------|
D|-------8-12~-11h12p11-9-8-9~-----/9-11-9-12----------|
A|-/9-11-----------------------------------------------|
E|-----------------------------------------------------|

E|-----------------------------------------------------|
B|----------------10-10-8h10p8-------------------------|
G|-11h12p11-9~-----------------11-11~--9---------------|
D|--------------9------------------------12/-----------|
A|-----------------------------------------------------|
E|-----------------------------------------------------|

E|-----------------------------------------------------|
B|-----------------------------------------------------|
G|----------9~--7h9p7-6~------9h10p9----9--------------|
D|--------9--------------------------12---12-9~--------|
A|-/10-12------------------12--------------------------|
E|-----------------------------------------------------|

E|-----------------------------------------------------|
B|-----------------------------------------------------|
G|-----------------------------------------------------|
D|-----------------------------------------------------|
A|-12-9------------------------------------------------|
E|------12-10-7~---------------------------------------|





Solo 2(3:38)

E|-----------------------------------------------------|
B|-/14b15--14b15--14~--12--10--------------------------|
G|-----------------------------11--11~--9h11p9--7~-----|
D|-----------------------------------------------------|
A|-----------------------------------------------------|
E|-----------------------------------------------------|

E|-----------------------------------------------------|
B|------------7-10-------------------------------------|
G|-----7-9-9b------9p7---7h9-7h9-7h9p7---------7-------|
D|-7/9-----------------9---------------9-7-7h9---------|
A|-----------------------------------------------------|
E|-----------------------------------------------------|

E|-----------------------------------------------------|
B|-----------------------------------------------------|
G|-----------------------------------------------------|
D|-----7-9---------------------------------------------|
A|-7/9-----9/7-5---5-5---------------------------------|
E|---------------7-----7/------------------------------|

E|--------------------------------10-12/14-14-12~~-----|
B|--------------------------10-12----------------------|
G|-----------------7-9-9/11----------------------------|
D|------------7-9--------------------------------------|
A|------7-8/9------------------------------------------|
E|-7-10------------------------------------------------|

E|-10h12p10-9~~----------------------------------------|
B|--------------------10---------------10-10~----------|
G|---------------9/11----11/9-7---9/11-----------------|
D|------------------------------9----------------------|
A|-----------------------------------------------------|
E|-----------------------------------------------------|

E|---------------7-7----7-7-10/------------------------|
B|-12--------------7-10-7-7----------------------------|
G|----11/9-7/------------------------------------------|
D|-----------------------------------------------------|
A|-----------------------------------------------------|
E|-----------------------------------------------------|

E|-----------------------------------------------------|
B|----------------------15-----------------------------|
G|----------------14-16----14-14h16-16~----------------|
D|----------14-16--------------------------------------|
A|-12/14-17--------------------------------------------|
E|-----------------------------------------------------|

E|---------------------------------------17------------|
B|-----15-17-b19r17-15----17b19-17-15-------17b19-17---|
G|-/16-----------------16-------------16---------------|
D|-----------------------------------------------------|
A|-----------------------------------------------------|
E|-----------------------------------------------------|

E|-----------------------------------------------------|
B|-15-17-17b19r17p15-----------------------------------|
G|-------------------16-16~----14h16-14-16/------------|
D|-----------------------------------------------------|
A|-----------------------------------------------------|
E|-----------------------------------------------------|

E|-----------------------------------------------------|
B|------10---------------10----------------------------|
G|-9-11----11/9-7---9/11----11~-------9h11p9-7~~-------|
D|----------------9------------------------------------|
A|-----------------------------------------------------|
E|-----------------------------------------------------|

E|-----------------------------------------------------|
B|----------10-----------------------------------------|
G|-9b-9-7------9b-9-7----------------------------------|
D|--------9-------------9p7----------------------------|
A|--------------------------9/-------------------------|
E|-----------------------------------------------------|

E|-----------------------------------------------------|
B|-----------------------------------------------------|
G|-9h11--9h11--9h11-9-7--------------------------------|
D|-9h11--9h11--9h11-----9-7-7h9------------------------|
A|-----------------------------------------------------|
E|-----------------------------------------------------|

E|-----------------17-19-19b22-19----------------------|
B|-/12-15-17-17/19----------------19b22-19-17~~--------|
G|-----------------------------------------------------|
D|-----------------------------------------------------|
A|-----------------------------------------------------|
E|-----------------------------------------------------|

E|-----------------------------------------------------|
B|-15h17p15-14~---------10-12----10--------------------|
G|-----------------9/11-------11----11/9p7-------------|
D|-----------------------------------------9~----------|
A|-----------------------------------------------------|
E|-----------------------------------------------------|

E|-----------------------------------------------------|
B|----17b19-17b19r17~-------------10-12----------------|
G|-16--------------------7-9-9/11-------11/9p7---------|
D|---------------------9-----------------------9--7/9~-|
A|-----------------------------------------------------|
E|-----------------------------------------------------|

E|--------------------------7---7-5h7-7-7-5h7-7-7------|
B|------------------------7---7------------------------|
G|-9b11r9p7------------9b------------------------------|
D|----------9p7-7h9~-----------------------------------|
A|-----------------------------------------------------|
E|-----------------------------------------------------|

E|-9b10-9-7--------------------------------------------|
B|----------10-----------------------------------------|
G|-------------9b11-9-7h9-7h9~-------7-----------------|
D|-------------------------------------9p7-------------|
A|-----------------------------------------------------|
E|-----------------------------------------------------|

E|-----------------------------------------------------|
B|-12-14b15-14-12-10-----------------------------------|
G|-------------------11~----------7-9/11-7-7h9-7-------|
D|----------------------------7-9----------------------|
A|-----------------------------------------------------|
E|-----------------------------------------------------|

E|----14-13-12-----------------------------------------|
B|-12----------15-12----12-----------------------------|
G|-------------------14----14/16~-14-------------------|
D|-----------------------------------16/14p12----------|
A|--------------------------------------------14p12h14-|
E|-----------------------------------------------------|

E|-----------------------------------------------------|
B|-----------------------------------------------------|
G|----------14h16-14-----------------------------------|
D|-12h14/16----------16/14p12h14p12--------------------|
A|----------------------------------14p12----12h14~~---|
E|----------------------------------------14-----------|
reproducciones 665
Acordes para:
    Composição: Eric Clapton Colaboración y revision:
    • Luiz Egidio

    0 comentarios

    mostrar más comentarios

    ¿Conseguiste tocar?

    0 tocaron 0 aún no

    ¡Graba un vídeo tocando Autumn Leaves Solo y envianoslo!

    00:00 / 00:00
    outros vídeos desta música
    repetir qualidade Automático
    Outros vídeos desta música
    00:00 / 00:00
    Automático
    OK