Cifra Club

Cocaine (tab)

Eric Clapton

Tablatura: Principal (guitarra)
Tom: G
guitar 1

E||------------------------|------------------|-----------------------|
B||------------------x-----|------------------|-----------------------|
G||--9--9--7--9------x--7--|------------------|--9--9--7--9--------7--|
D||--9--9--7--9------x--7--|------------------|--9--9--7--9--------7--|
A||--7--7--5--7---------5--|------------------|--7--7--5--7--------5--|
E||------------------------|------------------|-----------------------|


------------------|------------------------|------------------|
------------------|------------------x-----|------------------|
------------------|--9--9--7--9------x--7--|------------------|
------------------|--9--9--7--9------x--7--|------------------|
------------------|--7--7--5--7---------5--|------------------|
------------------|------------------------|------------------|


------------------------|------------------|-----------------------|
------------------x-----|------------------|-----------------------|
--9--9--7--9------x--7--|------------------|--9--9--7--9--------7--|
--9--9--7--9------x--7--|------------------|--9--9--7--9--------7--|
--7--7--5--7---------5--|------------------|--7--7--5--7--------5--|
------------------------|------------------|-----------------------|


------------------|------------------------|------------------|
------------------|------------------x-----|------------------|
------------------|--9--9--7--9------x--7--|------------------|
------------------|--9--9--7--9------x--7--|------------------|
------------------|--7--7--5--7---------5--|------------------|
------------------|------------------------|------------------|


-----------------------|------------------|-----------------------|
-----------------------|------------------|-----------------------|
--9--9--7--9--------7--|------------------|--9--9--7--9--------7--|
--9--9--7--9--------7--|------------------|--9--9--7--9--------7--|
--7--7--5--7--------5--|------------------|--7--7--5--7--------5--|
-----------------------|------------------|-----------------------|


-------------------|--------------------|-------------------|
-------------------|--------------------|-------------------|
----------------9--|--------7--------5--|----------4--------|
----------------9--|--------7--------5--|----------4--------|
----------------7--|--------5--------3--|----------2--------|
-------------------|--------------------|-------------------|


-----------------------|-----------------------|------------------------|
-----------------------|-----------------------|------------------------|
--9--9--7--9--------7--|----------7---x-7-x-7--|--9--9--7--9------x--7--|
--9--9--7--9--------7--|----------7---x-7-x-7--|--9--9--7--9------x--7--|
--7--7--5--7--------5--|----------5---x-5-x-5--|--7--7--5--7------x--5--|
-----------------------|-----------------------|------------------------|


------------------|-----------------------|------------------|
------------------|-----------------------|------------------|
------------------|--9--9--7--9--------7--|------------------|
------------------|--9--9--7--9--------7--|------------------|
------------------|--7--7--5--7--------5--|------------------|
------------------|-----------------------|------------------|


------------------------|------------------|-----------------------|
------------------x-----|------------------|-----------------------|
--9--9--7--9------x--7--|------------------|--9--9--7--9--------7--|
--9--9--7--9------x--7--|------------------|--9--9--7--9--------7--|
--7--7--5--7---------5--|------------------|--7--7--5--7--------5--|
------------------------|------------------|-----------------------|


------------------|-----------------------|-------------------|
------------------|-----------------------|-------------------|
------------------|--9--9--7--9--------7--|----------------9--|
------------------|--9--9--7--9--------7--|----------------9--|
------------------|--7--7--5--7--------5--|----------------7--|
------------------|-----------------------|-------------------|


--------------------|-------------------|-----------------------|
--------------------|-------------------|-----------------------|
--------7--------5--|----------4--------|--9--9--7--9--------7--|
--------7--------5--|----------4--------|--9--9--7--9--------7--|
--------5--------3--|----------2--------|--7--7--5--7--------5--|
--------------------|-------------------|-----------------------|


-----------------------|------------------------|------------------|
-----------------------|------------------------|------------------|
----------7---x-7-x-7--|--9--9--7--9------x--7--|------------------|
----------7---x-7-x-7--|--9--9--7--9------x--7--|------------------|
----------5---x-5-x-5--|--7--7--5--7------x--5--|------------------|
-----------------------|------------------------|------------------|


-----------------------|------------------|-----------------------|
-----------------------|------------------|-----------------------|
--9--9--7--9--------7--|------------------|--9--9--7--9--------7--|
--9--9--7--9--------7--|------------------|--9--9--7--9--------7--|
--7--7--5--7--------5--|------------------|--7--7--5--7--------5--|
-----------------------|------------------|-----------------------|


------------------|-----------------------|------------------|
------------------|-----------------------|------------------|
------------------|--9--9--7--9--------7--|------------------|
------------------|--9--9--7--9--------7--|------------------|
------------------|--7--7--5--7--------5--|------------------|
------------------|-----------------------|------------------|


-----------------------|------------------|-----------------------|
-----------------------|------------------|-----------------------|
--9--9--7--9--------7--|------------------|--9--9--7--9--------7--|
--9--9--7--9--------7--|------------------|--9--9--7--9--------7--|
--7--7--5--7--------5--|------------------|--7--7--5--7--------5--|
-----------------------|------------------|-----------------------|


------------------|-----------------------|------------------|
------------------|-----------------------|------------------|
------------------|--9--9--7--9--------7--|------------------|
------------------|--9--9--7--9--------7--|------------------|
------------------|--7--7--5--7--------5--|------------------|
------------------|-----------------------|------------------|


-----------------------|------------------|-----------------------|
-----------------------|------------------|-----------------------|
--9--9--7--9--------7--|------------------|--9--9--7--9--------7--|
--9--9--7--9--------7--|------------------|--9--9--7--9--------7--|
--7--7--5--7--------5--|------------------|--7--7--5--7--------5--|
-----------------------|------------------|-----------------------|


------------------|-----------------------|------------------|
------------------|-----------------------|------------------|
------------------|--9--9--7--9--------7--|------------------|
------------------|--9--9--7--9--------7--|------------------|
------------------|--7--7--5--7--------5--|------------------|
------------------|-----------------------|------------------|


-----------------------|------------------|-----------------------|
-----------------------|------------------|-----------------------|
--9--9--7--9--------7--|------------------|--9--9--7--9--------7--|
--9--9--7--9--------7--|------------------|--9--9--7--9--------7--|
--7--7--5--7--------5--|------------------|--7--7--5--7--------5--|
-----------------------|------------------|-----------------------|


------------------|------------------|------------------|
------------------|------------------|------------------|
------------------|------------------|------------------|
------------------|------------------|------------------|
------------------|------------------|------------------|
------------------|------------------|------------------|


-------------------------|-----------------------|-------------------|
-------------------------|-----------------------|-------------------|
--1--1--0--1----------2--|-----------------------|-------------------|
--2--2--0--2------0-2-0--|----------------0---2--|-------------------|
-------------------------|----------2-2-2--------|-------------------|
-------------------------|-----------------------|--0----------------|


------------------|------------------------|--------------------|
------------------|------------------------|--------------------|
------------------|--1--1--0--1------1--2--|--------2--2--------|
------------------|--2--2--0--2------2--0--|-----------0--------|
------------------|------------------------|--------------------|
------------------|------------------------|--------------------|


------------------|------------------|----------------------------|
------------------|------------------|----------------------------|
------------------|------------------|------------------------0-2-|
------------------|------------------|--2--2--0--2--------0-2---0-|
------------------|------------------|----------------0-2---------|
------------------|------------------|----------------------------|


------------------|-------------------------|-------------------|
------------------|-------------------------|-------------------|
------------------|-------------------1--2--|------2------------|
------------------|--------0--0-2-----2--0--|------0------------|
------------------|--2--2-------------------|-------------------|
------------------|-------------------------|-------------------|


----------------------------|----------------------|------------------------|
----------------------------|----------------------|------------------------|
------------------------0-2-|----------7-----7-----|--1--1--0--1------1--2--|
--2--2--0--2--------0-2---0-|----------5-7---7--5--|--2--2--0--2------2--0--|
----------------0-2---------|----------------------|------------------------|
----------------------------|----------------------|------------------------|


                                    Cocaine


                                                                    Eric Clapton
guitar 2




E||-----------------------|-------------------------------|--------------------|
B||-----------------------|-------------------------------|--------------------|
G||--9--9--7--9--------7--|-------------------------------|--------------------|
D||--9--9--7--9--------7--|--------------------------0----|--0-2---------------|
A||--7--7--5--7--------5--|----------0-2-0-2-0-2-0-2------|--------------------|
E||-----------------------|-------------------------------|--------------------|


-------------------------|-------------------|-------------------------|
-------------------------|-------------------|-------------------------|
-------------------------|-------------------|--7----------------------|
----0--------0-----------|--2----------------|----9---7----5--6--------|
--------0-2-----0--------|-------------------|-------------------7--5--|
-------------------3--0--|-------------------|-------------------------|


--------------------|-----------------------|-----------------------|
--------------------|-----------------------|-----------------x-----|
--------------------|-----------------------|----9--7--9------x--7--|
--------------------|-------0-0-------------|----9--7--9------x--7--|
--7------------7\---|--0-2----0-------------|----7--5--7---------5--|
--------------------|--------------3b-------|-----------------------|


------------------|-----------------------|------------------|
------------------|-----------------------|------------------|
------------------|--9--9--7--9--------7--|------------------|
------------------|--9--9--7--9--------7--|------------------|
------------------|--7--7--5--7--------5--|------------------|
------------------|-----------------------|------------------|


-----------------------|------------------|-----------------------|
-----------------------|------------------|-----------------------|
--9--9--7--9--------7--|------------------|--9--9--7--9--------7--|
--9--9--7--9--------7--|------------------|--9--9--7--9--------7--|
--7--7--5--7--------5--|------------------|--7--7--5--7--------5--|
-----------------------|------------------|-----------------------|


-------------------|--------------------|-------------------|
-------------------|--------------------|-------------------|
----------------9--|--------7--------5--|----------4--------|
----------------9--|--------7--------5--|----------4--------|
----------------7--|--------5--------3--|----------2--------|
-------------------|--------------------|-------------------|


-----------------------|-----------------------|------------------------|
-----------------------|-----------------------|------------------------|
--9--9--7--9--------7--|----------7---x-7-x-7--|--9--9--7--9------x--7--|
--9--9--7--9--------7--|----------7---x-7-x-7--|--9--9--7--9------x--7--|
--7--7--5--7--------5--|----------5---x-5-x-5--|--7--7--5--7------x--5--|
-----------------------|-----------------------|------------------------|


------------------|-----------------------|------------------|
------------------|-----------------------|------------------|
------------------|--9--9--7--9--------7--|------------------|
------------------|--9--9--7--9--------7--|------------------|
------------------|--7--7--5--7--------5--|------------------|
------------------|-----------------------|------------------|


------------------------|------------------|-----------------------|
------------------x-----|------------------|-----------------------|
--9--9--7--9------x--7--|------------------|--9--9--7--9--------7--|
--9--9--7--9------x--7--|------------------|--9--9--7--9--------7--|
--7--7--5--7---------5--|------------------|--7--7--5--7--------5--|
------------------------|------------------|-----------------------|


------------------|-----------------------|-------------------|
------------------|-----------------------|-------------------|
------------------|--9--9--7--9--------7--|----------------9--|
------------------|--9--9--7--9--------7--|----------------9--|
------------------|--7--7--5--7--------5--|----------------7--|
------------------|-----------------------|-------------------|


--------------------|-------------------|-----------------------|
--------------------|-------------------|-----------------------|
--------7--------5--|----------4--------|--9--9--7--9--------7--|
--------7--------5--|----------4--------|--9--9--7--9--------7--|
--------5--------3--|----------2--------|--7--7--5--7--------5--|
--------------------|-------------------|-----------------------|


-----------------------|------------------------|------------------|
-----------------------|------------------------|------------------|
----------7---x-7-x-7--|--9--9--7--9------x--7--|------------------|
----------7---x-7-x-7--|--9--9--7--9------x--7--|------------------|
----------5---x-5-x-5--|--7--7--5--7------x--5--|------------------|
-----------------------|------------------------|------------------|


-----------------------|------------------|-----------------------|
-----------------------|------------------|-----------------------|
--9--9--7--9--------7--|------------------|--9--9--7--9--------7--|
--9--9--7--9--------7--|------------------|--9--9--7--9--------7--|
--7--7--5--7--------5--|------------------|--7--7--5--7--------5--|
-----------------------|------------------|-----------------------|


------------------|-----------------------|------------------|
------------------|-----------------------|------------------|
------------------|--9--9--7--9--------7--|------------------|
------------------|--9--9--7--9--------7--|------------------|
------------------|--7--7--5--7--------5--|------------------|
------------------|-----------------------|------------------|


-----------------------|------------------|-----------------------|
-----------------------|------------------|-----------------------|
--9--9--7--9--------7--|------------------|--9--9--7--9--------7--|
--9--9--7--9--------7--|------------------|--9--9--7--9--------7--|
--7--7--5--7--------5--|------------------|--7--7--5--7--------5--|
-----------------------|------------------|-----------------------|


------------------|-----------------------|------------------|
------------------|-----------------------|------------------|
------------------|--9--9--7--9--------7--|------------------|
------------------|--9--9--7--9--------7--|------------------|
------------------|--7--7--5--7--------5--|------------------|
------------------|-----------------------|------------------|


-----------------------|------------------|-----------------------|
-----------------------|------------------|-----------------------|
--9--9--7--9--------7--|------------------|--9--9--7--9--------7--|
--9--9--7--9--------7--|------------------|--9--9--7--9--------7--|
--7--7--5--7--------5--|------------------|--7--7--5--7--------5--|
-----------------------|------------------|-----------------------|


------------------|-----------------------|------------------|
------------------|-----------------------|------------------|
------------------|--9--9--7--9--------7--|------------------|
------------------|--9--9--7--9--------7--|------------------|
------------------|--7--7--5--7--------5--|------------------|
------------------|-----------------------|------------------|


-----------------------|------------------|-----------------------|
-----------------------|------------------|-----------------------|
--9--9--7--9--------7--|------------------|--9--9--7--9--------7--|
--9--9--7--9--------7--|------------------|--9--9--7--9--------7--|
--7--7--5--7--------5--|------------------|--7--7--5--7--------5--|
-----------------------|------------------|-----------------------|


------------------|-----------------------|------------------|
------------------|-----------------------|------------------|
------------------|--9--9--7--9--------7--|------------------|
------------------|--9--9--7--9--------7--|------------------|
------------------|--7--7--5--7--------5--|------------------|
------------------|-----------------------|------------------|


-----------------------|------------------|-----------------------|
-----------------------|------------------|-----------------------|
--9--9--7--9--------7--|------------------|--9--9--7--9--------7--|
--9--9--7--9--------7--|------------------|--9--9--7--9--------7--|
--7--7--5--7--------5--|------------------|--7--7--5--7--------5--|
-----------------------|------------------|-----------------------|


------------------|-----------------------|-------------------|
------------------|-----------------------|-------------------|
------------------|--9--9--7--9--------7--|----------------9--|
------------------|--9--9--7--9--------7--|----------------9--|
------------------|--7--7--5--7--------5--|----------------7--|
------------------|-----------------------|-------------------|


--------------------|-------------------|-----------------------|
--------------------|-------------------|-----------------------|
--------7--------5--|----------4--------|--9--9--7--9--------7--|
--------7--------5--|----------4--------|--9--9--7--9--------7--|
--------5--------3--|----------2--------|--7--7--5--7--------5--|
--------------------|-------------------|-----------------------|


------------------|-----------------------|-------------------|
------------------|-----------------------|-------------------|
------------------|--9--9--7--9--------7--|----------------9--|
------------------|--9--9--7--9--------7--|----------------9--|
------------------|--7--7--5--7--------5--|----------------7--|
------------------|-----------------------|-------------------|


--------------------|-------------------|-----------------------|
--------------------|-------------------|-----------------------|
--------7--------5--|----------4--------|--9--9--7--9--------7--|
--------7--------5--|----------4--------|--9--9--7--9--------7--|
--------5--------3--|----------2--------|--7--7--5--7--------5--|
--------------------|-------------------|-----------------------|


------------------|-----------------------|------------------|
------------------|-----------------------|------------------|
------------------|--9--9--7--9--------7--|------------------|
------------------|--9--9--7--9--------7--|------------------|
------------------|--7--7--5--7--------5--|------------------|
------------------|-----------------------|------------------|


-----------------------|------------------|-----------------------|
-----------------------|------------------|-----------------------|
--9--9--7--9--------7--|------------------|--9--9--7--9--------7--|
--9--9--7--9--------7--|------------------|--9--9--7--9--------7--|
--7--7--5--7--------5--|------------------|--7--7--5--7--------5--|
-----------------------|------------------|-----------------------|


------------------|-----------------------|------------------|
------------------|-----------------------|------------------|
------------------|--9--9--7--9--------7--|------------------|
------------------|--9--9--7--9--------7--|------------------|
------------------|--7--7--5--7--------5--|------------------|
------------------|-----------------------|------------------|


-----------------------|------------------|-----------------------|
-----------------------|------------------|-----------------------|
--9--9--7--9--------7--|------------------|--9--9--7--9--------7--|
--9--9--7--9--------7--|------------------|--9--9--7--9--------7--|
--7--7--5--7--------5--|------------------|--7--7--5--7--------5--|
-----------------------|------------------|-----------------------|


------------------|-----------------------||
------------------|-----------------------||
------------------|--9--9--7--9--------7--||
------------------|--9--9--7--9--------7--||
------------------|--7--7--5--7--------5--||
------------------|-----------------------||
reproducciones 9.160
Acordes para:

    0 comentarios

    mostrar más comentarios

    ¿Conseguiste tocar?

    3 tocaron 0 aún no

    ¡Graba un vídeo tocando Cocaine (tab) y envianoslo!

    00:00 / 00:00
    outros vídeos desta música
    repetir qualidade Automático
    Outros vídeos desta música
    00:00 / 00:00
    Automático
    OK