Cifra Club

All Of My Love Solo

Led Zeppelin

Tablatura: Principal (guitarra)
Tom: Em


E|-------------------------5-4-5-7-5-4-5-8-7-5-------------------------------|
A|------------------5-4-5----------------------8-6--5------------------------|
D|-----------5-4-5-----------------------------------------------------------|
G|----7-6-7------------------------------------------------------------------|
B|---------------------------------------------------------------------------|
E|---------------------------------------------------------------------------|


E|----5----------------------------------------------------------------------|
A|------5---3-5---3----------------------------------------------------------|
D|--------5-----5---5-4-2-0-2-4-0-5-4-2-0------------------------------------|
G|----------------------------------------4-2-0------------------------------|
B|---------------------------------------------------------------------------|
E|---------------------------------------------------------------------------|


E|----------------------------------------5---4-5-7-5-4-5-8------------------|
A|--------------------------------5---4-5------------------------------------|
D|----------------4-----4-5---4-5--------------------------------------------|
G|------7-7---6-7-----7------------------------------------------------------|
B|----7----------------------------------------------------------------------|
E|---------------------------------------------------------------------------|


E|----7-8-10-7-8-10-7-8-10-8-7---------7-8----7------------------------------|
A|-----------------------------10-8-10-----10---10-10-8-10-------------------|
D|---------------------------------------------------------------------------|
G|---------------------------------------------------------------------------|
B|---------------------------------------------------------------------------|
E|---------------------------------------------------------------------------|
reproducciones 102
Acordes para:
    Colaboración y revision:
    • Juan Ossa

    0 comentarios

    mostrar más comentarios

    ¿Conseguiste tocar?

    0 tocaron 0 aún no

    ¡Graba un vídeo tocando All Of My Love Solo y envianoslo!

    00:00 / 00:00
    outros vídeos desta música
    repetir qualidade Automático
    Outros vídeos desta música
    00:00 / 00:00
    Automático
    OK